» » »

You Am I, Jewels And Bullets Bass tabs (ver.1)

Artists:  A B C D E F G H I J K L M N O P Q R S T U V W X Y Z # 

Jewels And Bullets Bass tabs (ver.1)

You Am I Tabs
 Rating:
4/5 (4 votes)
Jewels And Bullets lessons Tabs too difficult? Try these video lessons and learn fast
                You Am I

Version 1

This is not an edit of the tab found at 
I didn't think it was right. Please make up your own mind, don't trust me.

Track 5 from The Cream & The Crock was used as reference.

There is more than one point where the rhythm I have written is incorrect,
listen to the CD to get it exactly right.

Tuning
G
D
A
E


* Intro *
The bass doesn't start playing until the bar that starts just after the drums
kick in, but in case like me you can't resist playing something I play this
(which is the same as the end of a regular verse):
G|--------|
D|--------|
A|554-540-|
E|--------|


* Verse *
G|--------|--------|--------|--------|
D|----22-2|----44-4|----22-2|--------|
A|55-5----|55-5----|55-5----|554-540-|
E|--------|--------|--------|--------|

G|--------|
D|--------|
A|2-22-222|
E|--------|


* Chorus *
G|--------|--------|--------|--------|--------|--------|--------|--------|
D|--------|--------|--------|--------|--------|--------|--------|--------|
A|2-22-222|2-22020-|--------|-----0-2|-22-22-2|-22-020-|--------|--------|
E|--------|-------3|-33-33-3|-33-3-3-|--------|-------3|-33-33-3|-33-33-3|


* Outro *
G|--------|--------|--------|--------|
D|--------|--------|--------|--------|
A|--------|5-------|--------|5-77-77-|   
E|5-77-757|--77-757|5-77-757|--------|

End on
G|--------|
D|--------|
A|--------|
E|7-------|
            
Submit corrections

comments powered by Disqus
↑ Back to top | You Am I Bass for Jewels And Bullets. Lyrics for acoustic guitar and electric guitar. Tablatures and chords are parodies/interpretations of the original songs. You may use it for private study, scholarship, research or language learning purposes only