» » »

You Am I, Berlin Chair Bass tabs (ver.1)

Artists:  A B C D E F G H I J K L M N O P Q R S T U V W X Y Z # 

Berlin Chair Bass tabs (ver.1)

You Am I Tabs
 Rating:
4/5 (4 votes)
Berlin Chair lessons Tabs too difficult? Try these video lessons and learn fast
1
                You Am I - Berlin Chair

"If half of what i'm saying, of what i'm saying is true"

Verse
G|----------------------------------------|
D|----------------------------------------|
A|-------------------------------5--------|	(X3)
E|-7-77-75---7-77-75/---3-33-333---33-35\-|

Verse II
G|---------------------|
D|---------------------|
A|---------------------|			(X1)
E|-7-77-75---7-77-75/--|


Chorus
G|---------------------------------------|
D|---------------------------------------|
A|----------5-55-555------------7-77-777-|	(X3)
E|-3-3-333------------3-3-333------------|


Bridge
G|-----------------------------------------------------------------|
D|-----------------------------------------------------------------|	(X1)
A|----------5-55-555--------------------------------------5--------|
E|-3-3-333------------3-3-333--3-33-333--3-3-333--3-3-333---33-35\-|


Verse
G|----------------------------------------|
D|----------------------------------------|
A|-------------------------------5--------|	(X3)
E|-7-77-75---7-77-75/---3-33-333---33-35\-|

Verse II
G|---------------------|
D|---------------------|
A|---------------------|			(X1)
E|-7-77-75---7-77-75/--|


Chorus
G|---------------------------------------|
D|---------------------------------------|
A|----------5-55-555------------7-77-777-|	(X3)
E|-3-3-333------------3-3-333------------|

Chorus II/Bridge
G|--------------------------------------|
D|--------------------------------------|
A|----------5-55-555--------------------|	(X1)
E|-3-3-333------------3-3-333--3-33-333-|
		   Continue on the G note

Chorus
G|---------------------------------------|
D|---------------------------------------|
A|----------5-55-555------------7-77-777-|	(X3)
E|-3-3-333------------3-3-333------------|

Chorus II/Bridge
G|--------------------------------------|
D|--------------------------------------|
A|----------5-55-555--------------------|	(X1)
E|-3-3-333------------3-3-333--3-33-333-|
		   Continue on the G note
            
Submit corrections

comments powered by Disqus
↑ Back to top | You Am I Bass for Berlin Chair. Lyrics for acoustic guitar and electric guitar. 1 Tablatures and chords are parodies/interpretations of the original songs. You may use it for private study, scholarship, research or language learning purposes only