>
 >
Madrugada

Madrugada Guitar Tabs

Yoshida Brothers - Madrugada chords, tabs, tablatures, lyrics

Guitar lessons | Add/correct | Request | Top 50 tabs Artists:  A B C D E F G H I J K L M N O P Q R S T U V W X Y Z 0-9

Madrugada Guitar Tabs – Yoshida Brothers

CD, Sheet music, Poster

Do you like Madrugada? Share with your friends now
Tabs
-------------------------------------------------------------------------------
-------------------------------------------------------------------------------

Tuning: E-Standard

//////////////////////////////////////////////
//                                          //
//  RATING THIS TAB TAKES ABOUT 5 SECONDS   //
//  AND HELPS ME TO IMPROVE MY WORK         //
//                                          //
//////////////////////////////////////////////

 / under a note = Trill

e|-------I------------------------------------------------------------------||
B|-------I-----------------------------5------------------------------------||
G|---6-4-I-6-6-(6-6)--6-4-6-6-(6-6)--6---6-6-(6-6)--6-4-6-6-(6-6)-------4-5-||
D|---/---I----------------------------------------------------------6-6-----||
A|-------I------------------------------------------------------------------||
E|-------I------------------------------------------------------------------||
                                                                             |
e|--------------------------------------------------------------------------||
B|--------------------------------------------------------------------------||
G|--------------------------------------------------------------------------||
D|--------------------------------------------------------------------------||
A|---------4-4--4-4-------2-2--2-2----------------------2-2--2-2--------2-3-||
E|---------------------------------------6-6--6-6---------------------4-----||

e|-------------------------------------------------------------------||
B|-----------------------------5---------------------------------5-7-||
G|-6-6-(6-6)--6-4-6-6-(6-6)--6---6-6-(6-6)--6-4-6--------------6-----||
D|-------------------------------------------------------------------||
A|-------------------------------------------------------------------||
E|-------------------------------------------------------------------||
                                                                      |
e|-------------------------------------------------------------------||
B|-------------------------------------------------------------------||
G|-------------------------------------------------------------------||
D|-------------------------------------------------------------------||
A|-4-4--4-4-------2-2--2-2-------------------------------------------||
E|-------------------------------6-6--6-6-----6--5-------------------||

e|---------------------------------------------------------||
B|--9-7-9----9-9-7-9-7-5------5-7-9-7-9----7-7h9p7-5-------||
G|--------------------------6------------------------6-----||
D|---------------------------------------------------------||
A|---------------------------------------------------------||
E|---------------------------------------------------------||
                                                            |
e|---------------------------------------------------------||
B|---------------------------------------------------------||
G|---------------------------------------------------------||
D|---------------------------------------------------------||
A|---------------2-4----s7--4----------------2-4-----------||
E|--5---5-4-----------------------5---5-4------------------||

e|---7-7---7-9-7-9---9-9-7-9-7-----------------------------------------------||
B|-------9---------------------9-7---9-----9-7---7---7---9-9-7-9-7-----------||
G|-------------------------------------6-------9---9---------------9-6-------||
D|---------------------------------------------------------------------------||
A|---------------------------------------------------------------------------||
E|---------------------------------------------------------------------------||
                                                                              |
e|---------------------------------------------------------------------------||
B|---------------------------------------------------------------------------||
G|---------------------------------------------------------------------------||
D|---------------------------------------------------------------------------||
A|-----------7~----6~--------5~--------4------------------------2----4-------||
E|-----------------------------------------------5-----4---------------------||



later:

e|----7-7h9-9-9-7-7h9-9-9-7-7h9-9-9-----7-7h9-9-9-7-7h9-9-9-7-9--12-12-11--9-||
B|--9-------------------------------9-9--------------------------------------||
G|--/------------------------------------------------------------------------||
D|---------------------------------------------------------------------------||
A|---------------------------------------------------------------------------||
E|---------------------------------------------------------------------------||
                                                                              |
e|---------------------------------------------------------------------------||
B|---------------------------------------------------------------------------||
G|---------------------------------------------------------------------------||
D|-----------------------------------------------6-6-------------------------||
A|------4-------4-4----------------0h4-------4s6------4---4---------7-7-6-4--||
E|----------4--------4-5-5-0---5-5-----5-4-4------------4--------------------||

e|--7--4------4-----4-2--2---2--2h4-2h4-------||
B|--------7-----2------5---5------------5-2---||
G|--------------------------------------------||
D|--------------------------------------------||
A|--------------------------------------------||
E|--------------------------------------------||
                                               |
e|--------------------------------------------||
B|--------------------------------------------||
G|--------------------------------------------||
D|--------------------------------------------||
A|---------------4----------------------------||
E|--7--4--2----4-----2----2----4----4---------||



This tab was a hell of work- but this song is really worth it :D
I hope you enjoy,
Martin Messner





Comments


Popular Yoshida Brothers tabs & chords
Hyakka Ryouran Tabs
Namonaki Oka Hill With No Name Intro Tabs
Rising Tabs
Storm Tabs
Tabidachi Tabs


Song lyrics



↑ Back to top | Tablatures and chords are parodies/interpretations of the original songs. You may use it for private study, scholarship, research or language learning purposes only
© 2014 AZChords.com Contact us | Privacy policy | DMCA | Add/correct tabs | Request tabs | Top 50 tabs