» » »

Yo La Tengo, You Tore Me Down Tabs (ver.1)

Artists:  A B C D E F G H I J K L M N O P Q R S T U V W X Y Z # 

You Tore Me Down Tabs (ver.1)

Yo La Tengo Tabs
Rating:
0/5 (0 votes)
You Tore Me Down lessons Tabs too difficult? Try these video lessons and learn fast
                -------------------------------------------------------------------------------
-------------------------------------------------------------------------------


Tuning:

e|-------------|-------------------------------------------------------|
B|-------------|------3-------3--------3-------------------------------|
G|---2-0-------|----2---2---0---0----0---0----0----0---x3--------0-2---|
D|--------4--2-|-0-----------------------------------------0-2-4-------|
A|-------------|----------2--------------------------------------------|
E|-------------|-------------------3-------2----0----------------------|

D         F#m
Everybody knows
     A             G
That you've been untrue
       D                 F#m
You've gone and broke my heart
    A       G
And made me blue

Em       Bm/F# G
Turned my head around
Em       Bm/F#   G
Then you tore me down

D          F#m
If I had a choice
A          G
I'd not be sad
D                      F#m
'Cause when I hear your voice
   A        G
It makes me mad

Em       Bm/F# G
Baby's not around
Em       Bm/F#   G       D
But she's leaving town

Bm    A
Baby, baby
      Bm    A
Don't run away
  Bm          A
I want you to stay
Bm    A
I'm sorry
Bm    A
So sorry


I made you blue
And now you should be sorry too
Should be sorry too
Now I'm so alone
You're far away
I sit here at home
No words to say
To anyone around
'Cause you tore me down
Tore me down
Tore me down
Tore me down


************************************

| /   slide up
| \   slide down
| h   hammer-on
| p   pull-off
| ~   vibrato
| +   harmonic
| x   Mute note
| b   Bend
| pb  Pre-bend
| br  Bend release
| pbr Pre-bend release
| brb Bend release bend

************************************
            
Submit corrections

comments powered by Disqus
↑ Back to top | Yo La Tengo Tabs for You Tore Me Down. Lyrics for acoustic guitar and electric guitar. Tablatures and chords are parodies/interpretations of the original songs. You may use it for private study, scholarship, research or language learning purposes only