>
 >
Sugarcube

Sugarcube Guitar Tabs

Yo La Tengo - Sugarcube chords, tabs, tablatures, lyrics

Guitar lessons | Add/correct | Request | Top 50 tabs Artists:  A B C D E F G H I J K L M N O P Q R S T U V W X Y Z 0-9

Sugarcube Guitar Tabs – Yo La Tengo

CD, Sheet music, Poster

Do you like Sugarcube? Share with your friends now
ChordsTabsUkulele
-------------------------------------------------------------------------------
-------------------------------------------------------------------------------

i love this song with a passion, and decided to tab it out since no one else did.

Tuning: Open E


INTRO: (0:00-0:11)
e|----------------------------------------------------------------------------|
B|------9-9-9-9-9-9-9-9-9-7-7-------------------------------------------------|
G#|-----8-8-8-8-8-8-8-8-8-8-8-------------------------------------------------| x 3
E|----------------------------------------------------------------------------|
B|----------------------------------------------------------------------------|
E|----------------------------------------------------------------------------|
	(0:12-0:20)
e|----------------------------------------------------------------------------|
B|------9-9-9-9-9-9-9-9-7-7-7--5h7-5-5-5-5-5-5-5-5-7-7-5-4-4h5p4--------------|
G#|-----8-8-8-8-8-8-8-8-8-8-8------------------------------------5-3-1-0------|
E|-----------------------------------------------------------------------0-0--|
B|----------------------------------------------------------------------------|
E|----------------------------------------------------------------------------|
	(0:21-0:26)
e|----------------------------------------------------------------------------|
B|----------------------------------------------------------------------------|
G#|-------0-1-0-3/5\3-------0-1-0-5-5-8-8-8-8-8/10\8\7------------------------|
E|------0-------------0-0-2----------------------------7----------------------|
B|----------------------------------------------------------------------------|
E|----------------------------------------------------------------------------|
	(0:27-0:39)
e|------0-0-0-0-0-0-0-0-0-0---------------------------------------------------|	
B|------0-0-0-0-0-0-0-2-4-2---------------------------------------------------|	 
G#|-----0-0-0-0-0-0-0-3-3-3---------------------------------------------------| X 4
E|------0-0-0-0-0-0-0-0-0-0---------------------------------------------------|	
B|------0-0-0-0-0-0-0-0-0-0---------------------------------------------------|	
E|------0-0-0-0-0-0-0-0-0-0---------------------------------------------------|		 
	(0:39-0:45)
e|----------------------------------------------------------------------------|
B|------9-9-9-9-9-9-9-9-9-7-7-------------------------------------------------|
G#|-----8-8-8-8-8-8-8-8-8-8-8-------------------------------------------------| X 2
E|----------------------------------------------------------------------------|
B|----------------------------------------------------------------------------|
E|----------------------------------------------------------------------------|
	(0:46-0:52)
e|----------------------------------------------------------------------------|
B|-----12-12-12-10-9-9h10-7-5-4-----------------------------------------------|
G#|-----------------------------5-3-1-0-----0---------------------------------|
E|--------------------------------------0-2-----------------------------------|
B|----------------------------------------------------------------------------|
E|----------------------------------------------------------------------------|
	(0:53-1:17)
e|------0-0-0-0-0-0-0-0-0-0---------------------------------------------------|
B|------0-0-0-0-0-0-0-2-4-2---------------------------------------------------|
G#|-----0-0-0-0-0-0-0-3-3-3---------------------------------------------------| X 8
E|------0-0-0-0-0-0-0-0-0-0---------------------------------------------------|
B|------0-0-0-0-0-0-0-0-0-0---------------------------------------------------|
E|------0-0-0-0-0-0-0-0-0-0---------------------------------------------------|
	(1:17-1:23)
e|----------------------------------------------------------------------------|
B|------9-9-9-9-9-9-9-9-9-7-7-------------------------------------------------|
G#|-----8-8-8-8-8-8-8-8-8-8-8-------------------------------------------------| X 2
E|----------------------------------------------------------------------------|
B|----------------------------------------------------------------------------|
E|----------------------------------------------------------------------------|
	(1:24-1:35)
e|----------------------------------------------------------------------------|
B|------9-9-12-12-10-9-9-12-12-10-9-9h10p9-7-5-7-9-7-5-7-5-9-7-5-7-5----------|
G#|---------------------------------------------------------------------------| X 2
E|----------------------------------------------------------------------------|
B|----------------------------------------------------------------------------|
E|----------------------------------------------------------------------------|

*solo*
too crazy to tab, but if you figure it out, submit it

AFTER SOLO: (2:00-2:06)
e|------9-9-9-9-9--11-11-11-11-11-11------------------------------------------|
B|------x-x-x-x-x--x--x--x--x--x--x--9-10-10-10-10-10-10-10-10-10-10-10-------|
G#|-----8-8-8-8-8--10-10-10-10-10-10---x--x--x--x--x--x--x--x--x--x--x--------|
E|-------------------------------------12-12-12-12-12-12-12-12-12-12-12-------|
B|----------------------------------------------------------------------------|
E|----------------------------------------------------------------------------|
	    (2:06-2:15)
e|------9-9-9-9-9--11-11-11-11-11-11------------------------------------------|
B|------x-x-x-x-x--x--x--x--x--x--x--9h10-9h10-9h10-9h10-9h12-9h12-9h12-9h12--|
G#|-----8-8-8-8-8--10-10-10-10-10-10------------------------------------------|
E|----------------------------------------------------------------------------|
B|----------------------------------------------------------------------------|
E|----------------------------------------------------------------------------|
	    (2:15-2:27)
e|----------------------------------------------------------------------------|
B|------9-9-9-9-9-9-9-9-9-7-7-------------------------------------------------|
G#|-----8-8-8-8-8-8-8-8-8-8-8-------------------------------------------------| X 4
E|----------------------------------------------------------------------------|
B|----------------------------------------------------------------------------|
E|----------------------------------------------------------------------------|
	    (2:28-2:33)
e|----------------------------------------------------------------------------|
B|------12-12-12-14-12-12-12-12-10-10-9-10-9-7-5------------------------------|
G#|---------------------------------------------------------------------------|
E|----------------------------------------------------------------------------|
B|----------------------------------------------------------------------------|
E|----------------------------------------------------------------------------|
	    (2:34-2:40)
e|----------------------------------------------------------------------------|
B|------9h10-9-7-9h10-9---9h10-9-7-9h10-9-7-----------------------------------|
G#|---------------------8-----------------------------------------------------| 
E|----------------------------------------------------------------------------|
B|----------------------------------------------------------------------------|
E|----------------------------------------------------------------------------|
	    (2:40-2:46)
e|----------------------------------------------------------------------------|
B|----------------------------------------------------------------------------|
G#|-----8-8-5-5-8-8-5-5-8-5-3-1-0-0h1p0---------------------------------------| 
E|--------------------------------------0-2-4-5-4-5-4-------------------------|
B|----------------------------------------------------------------------------|
E|----------------------------------------------------------------------------|
	    (2:46-2:52)
e|----------------------------------------------------------------------------|
B|----------------5-7-9-----------5-5-4-5-------------------------------------|
G#|-----5-3-3-5-3-------5-3-3-5-3---------------------------------------------| 
E|----------------------------------------------------------------------------|
B|----------------------------------------------------------------------------|
E|----------------------------------------------------------------------------|
	    (2:52-3:04)					    END
e|-------+7------------------------------------------0------------------------|
B|---------------------------------------------------0------------------------|
G#|----8----8-7-7-5-3-1-----0-1-3-3-5-3-3/8-7-5-3-1--0------------------------| 
E|----------------------0-2--------------------------0------------------------|
B|---------------------------------------------------0------------------------|
E|---------------------------------------------------0------------------------|

then there's that little spacey part at the very end, i'm too lazy to tab it though

| /  slide up
| \  slide down
| h  hammer-on
| p  pull-off
| ~  vibrato
| +  harmonic
| x  Mute note
===============================================================================





Comments


Popular Yo La Tengo tabs & chords
Autumn Sweater Bass Tabs
Don't Have To Be So Sad Bass Tabs
Almost True Chords
Did I Tell You 1 Chords
My Little Corner Of The World 1 Chords
Demons Tabs
Green Arrow Tabs
Ohm Tabs
Shadows Tabs
Superstar-watcher Tabs


Song lyrics



↑ Back to top | Tablatures and chords are parodies/interpretations of the original songs. You may use it for private study, scholarship, research or language learning purposes only
© 2014 AZChords.com Contact us | Privacy policy | DMCA | Add/correct tabs | Request tabs | Top 50 tabs