» » »

Yo La Tengo, Stockholm Syndrome Bass tabs (ver.1)

Artists:  A B C D E F G H I J K L M N O P Q R S T U V W X Y Z # 

Stockholm Syndrome Bass tabs (ver.1)

Yo La Tengo Tabs
 Rating:
4/5 (4 votes)
Stockholm Syndrome lessons Tabs too difficult? Try these video lessons and learn fast
                ---------------------------------------------------------------------------
---------------------------------------------------------------------------


Tuning: standard

each digit represents 5 strokes except the one with
a * next to it.

G|----------------------------0-0---------0-0----|
D|----2-2---2-2--------0-0-0-0-2-2-0-0-0-0-2-2-0-|
A|-0-2---0-2---0-2-3-3---------------------------|
E|------------------3-3--------------------------|

G|----------------------------0-0---------0-0-0--|
D|----2-2---2-2--------0-0-0-0-2-2-0-0-0-0-2-2---|
A|-0-2---0-2---0-2-3-3-------------------------3-|
E|------------------3-3--------------------------|

G|------------------------|
D|----2-2---2-2--------0*-|
A|-0-2---0-2---0-2-3-3----|
E|------------------3-3---|

* = just once...not 5 like all others
            
Submit corrections

comments powered by Disqus
↑ Back to top | Yo La Tengo Bass for Stockholm Syndrome. Lyrics for acoustic guitar and electric guitar. Tablatures and chords are parodies/interpretations of the original songs. You may use it for private study, scholarship, research or language learning purposes only