» » »

Shadows Tabs (ver.1)

Artists:  A B C D E F G H I J K L M N O P Q R S T U V W X Y Z # 

Shadows Tabs (ver.1)

Yo La Tengo
Rating:
0/5 (0 votes)

Hard to play? Try these video lessons and learn fast.
                Yo La Tengo - Shadows

Intro riff:
E |----------------|----------------|----------------|----------------||
B |----------------|----------------|----------------|----------------||
G |----------------|----------------|----------------|----------------||
D |----------------|----------------|----------------|----------------||
A |-4--------------|-4------2-------|-0--------------|-0-------2------||
E |-5--------------|-5------4-------|-2--------------|-2-------4------||

Verses:
   Scold me, that's all you've got to say
E |----------------|----------------|----------------|----------------||
B |----------------|----------------|----------------|----------------||
G |----------------|----------------|----------------|----------------||
D |----------------|----------------|----------------|----------------||
A |-4--------------|----------------|-2--------------|-2--------------||
E |-5--------------|----------------|-0--------------|----------------||

   Coldly           hurt me and turn away
E |----------------|----------------|----------------|----------------||
B |----------------|----------------|----------------|----------------||
G |----------------|----------------|----------------|----------------||
D |----------------|----------------|----------------|----------------||
A |-4--------------|----------------|-3--------------|-3--------------||
E |-5--------------|----------------|-4--------------|-4--------------||

You say
   I'm    not sorry that       I'm resolved to what is next
E |----------------|----------------|----------------|----------------||
B |----------------|----------------|----------------|----------------||
G |----------------|----------------|----------------|----------------||
D |----------------|----------------|----------------|----------------||
A |-4--------------|-2--------------|-4--------------|-0--------------||
E |-5--------------|-4--------------|-5--------------|-2--------------||

I head for the
   shadows
E |----------------|----------------|----------------|----------------||
B |----------------|----------------|----------------|----------------||
G |----------------|----------------|----------------|----------------||
D |----------------|----------------|----------------|----------------||
A |-4--------------|-4------2-------|-0--------------|-0-------2------||
E |-5--------------|-5------4-------|-2--------------|-2-------4------||

Bridge
       D                        C#m
In the shadows, where I end up loved
              D                    C#m
They help me see that I've finally won
     G#          F#
We wait in your heart

After the bridge, the verse is played again, but the vocals enter 2 lines later in than 
first 2 and the 'shadows' part is repeated. A pretty simple, minimal song, but very 
nonetheless B-)
            
Hard to play? Try these video lessons and learn fast. | Correct




comments powered by Disqus
↑ Back to top | Tablatures and chords are parodies/interpretations of the original songs. You may use it for private study, scholarship, research or language learning purposes only