» » »

Yo La Tengo, Return To Hot Chicken Tabs (ver.1)

Artists:  A B C D E F G H I J K L M N O P Q R S T U V W X Y Z # 

Return To Hot Chicken Tabs (ver.1)

Yo La Tengo Tabs
Rating:
0/5 (0 votes)
Return To Hot Chicken lessons Tabs too difficult? Try these video lessons and learn fast
                Background riff:
e:------------------------------------------------|
B:------------------------------------------------|
G:-------5--------5-----5--------5--------5-----5-|
D:----5--------5--------------5--------3----------|
A:-3--------3---------3----3--------3--------3----|
E:------------------------------------------------|

Variation every once in a while:
e:-------------------------------|
B:-------------------------------|
G:--------5-----4h5--2p0---------|
D:-----5-------------------------|
A:--3--------3-------------------|
E:-------------------------------|

[lead riff:]
e:-----------------------------------------------------------------|
B:-----------------------------------------------------------------|
G:-----------------------------------------------------------------|
D:---------3-2-----------------------3--2-----------------3--3--3--|
A:--3---5-------3--------3-----3--5--------3--------3--------------|
E:-----------------3--5-----------------------3--5-----------------|

e:------------------------------------------------------|
B:------------------------------------------------------|
G:--------5--5------------------------------------------|
D:3/7--7--------7--7/5--3h5--2-----3--2-----------------|
A:------------------------------3--------3-----5--5--3--|
E:------------------------------------------------------|

[lead chorus riff:]
e:-------------------------------------------------------------------|
B:-------------------------------------------------------------------|
G:----7--7--7--7--7--7--7--7--7--7--7--7---9--9--9--9--9--9--9--9--9-|
D:-----------------------------------------------------7--7--7--7--7-|
A:----5--5--5--5--5--5--5--5--5--5--5--5---7--7--7--7----------------|
E:-------------------------------------------------------------------|

e:----------------------------------|
B:----------8--8--8--8--8--8--8--8--|
G:-9--9--9--0--0--0--0--0--0--0--0--|
D:-7--7--7--------------------------|
A:----------------------------------|
E:----------------------------------|
            
Submit corrections

comments powered by Disqus
↑ Back to top | Yo La Tengo Tabs for Return To Hot Chicken. Lyrics for acoustic guitar and electric guitar. Tablatures and chords are parodies/interpretations of the original songs. You may use it for private study, scholarship, research or language learning purposes only