» » »

Moby Octopad Bass

Artists:  A B C D E F G H I J K L M N O P Q R S T U V W X Y Z # 

Moby Octopad Bass

(ver. 1)
Yo La Tengo Tabs
 Rating:
4.2/5 (5 votes)
    Moby Octopad lessons Tabs too difficult? Try these video lessons and learn fast
                -------------------------------------------------------------------------------
-------------------------------------------------------------------------------


Tuning: Standard

Main/only riff:
G|------------------| 
D|------------------| 
A|---------5-4-3----| 
E|-0-3-4-5-------5--|

~2:00
Bass drops out.

~2:33
Bass comes back in:
G|------------------| 
D|------------------| 
A|---------5-4-3----| 
E|-0-3-4-5-------5--|

2:48-2:52
Bass drops out for one bar.

2:52
Main riff continues until end of song:
G|------------------| 
D|------------------| 
A|---------5-4-3----| 
E|-0-3-4-5-------5--|

| /  slide up
| \  slide down
| h  hammer-on
| p  pull-off
| ~  vibrato
| +  harmonic
| x  Mute note
===============================================================================
            
Submit corrections

↑ Back to top | Yo La Tengo Bass for Moby Octopad. Lyrics for acoustic guitar and electric guitar. Tablatures and chords are parodies/interpretations of the original songs. You may use it for private study, scholarship, research or language learning purposes only