» » »

Yo La Tengo, Don't Have To Be So Sad Bass tabs (ver.1)

Artists:  A B C D E F G H I J K L M N O P Q R S T U V W X Y Z # 

Don't Have To Be So Sad Bass tabs (ver.1)

Yo La Tengo Tabs
 Rating:
4/5 (4 votes)
Don't Have To Be So Sad lessons Tabs too difficult? Try these video lessons and learn fast
1
                
Bass comes in at 6 seconds.

G|--------|--------|--------|--------| 1x
D|--------|--------|--------|--------|
A|-5~-----|--------|-3~-----|--------|
E|--------|-5~-----|--------|-3~--1~-|

Fade in the 8ths in the 3rd bar.

G|--------|--------|-----------------|-----------------| 1x 
D|--------|--------|-----------------|-----------------|
A|-5~-----|--------|-3-3-3-3-3-3-3-3-|-----------------|
E|--------|-5~-----|-----------------|-3-3-3-3-3-1-1-1-|

Play this for the most part of the song.

G|-----------------|-----------------|-----------------|-----------------|
D|-----------------|-----------------|-----------------|-----------------|
A|-5-5-5-5-5-5-5-5-|-----------------|-3-3-3-3-3-3-3-3-|-----------------|
E|-----------------|-5-5-5-5-5-5-5-5-|-----------------|-3-3-3-3-3-1-1-1-|

Variation in the chorus line: "You won't have to be so...".

G|-----------------|-----------------|-----------------|-----------------|
D|-----------------|-----------------|-----------------|-----------------|
A|-5-5-5-5-5-5-5-5-|-----------------|-3-3-3-3-3-3-3-3-|-3-3-3-3-3-3-3-3-|
E|-----------------|-5-5-5-5-5-5-5-5-|-----------------|-----------------|

There's another variation at the end of the song at about 5:27.

G|-----------------|-----------------|-----------------|-----------------|
D|-----------------|-----------------|-----------------|-----------------|
A|-5-5-5-5-5-5-5-7-|-----------------|-3-3-3-3-3-3-3-5-|-----------------|
E|-----------------|-5-5-5-5-5-5-5-5-|-----------------|-3-3-3-3-3-1-1-1-|

G|-----------------|-----------------|-----------------|-----------------| 
D|-----------------|-----------------|-----------------|-----------------|
A|-5-5-5-5-5-5-5-5-|-----------------|-3-3-3-3-3-3-3-3-|-----------------|
E|-----------------|-5-5-5-5-5-5-5-5-|-----------------|-3-3-3-3-3-1-1-1-|

G|-----------------|
D|-----------------|
A|-5~--------------|
E|-----------------|


Have fun!
            
Submit corrections

comments powered by Disqus
↑ Back to top | Yo La Tengo Bass for Don't Have To Be So Sad. Lyrics for acoustic guitar and electric guitar. 1 Tablatures and chords are parodies/interpretations of the original songs. You may use it for private study, scholarship, research or language learning purposes only