» » »

Tank Bass tabs (ver.1)

Artists:  A B C D E F G H I J K L M N O P Q R S T U V W X Y Z # 

Tank Bass tabs (ver.1)

Yoko Kanno
Rating:
5/5 (2 votes)

Hard to play? Try these video lessons and learn fast.
                Main Riff
G--------------------------------------------|
D--------5--4--3--1--------------------------|
A---3-------------------1--3-----------------|
E--------------------------------------------|

Key Change
G-------------------------------------------|
D-------11--10--9--6------------------------|
A---9---------------------6--9--------------|
E-------------------------------------------|
            
Hard to play? Try these video lessons and learn fast. | Correct




comments powered by Disqus
↑ Back to top | Tablatures and chords are parodies/interpretations of the original songs. You may use it for private study, scholarship, research or language learning purposes only