» » »

Yoko Kanno, Space Lion Tabs (ver.1)

Artists:  A B C D E F G H I J K L M N O P Q R S T U V W X Y Z # 

Space Lion Tabs (ver.1)

Yoko Kanno Tabs
 Rating:
4.2/5 (5 votes)
Space Lion lessons Tabs too difficult? Try these video lessons and learn fast
1
                ----------------------------------------------------------------------------
                             "Space Lion" - Seatbelts
----------------------------------------------------------------------------

Tuning: Standard

This song is for saxophone and vocals, but it can be played on guitar as well.
It helps to use some kind of effect like a chorus pedal, or anything that will
make it sound remotely like a sax.
'-hold note
/-slide from one note to the next
sd-slide down
su-slide up
^-bend note
p-pull off

   With this first part, you have to bend the string up and down
to make it sound good(less than a note)
e|---------------------------------------------------------------|
B|---------------------------------------------------------------|
G|---------------------------------------------------------------|
D|-12^-12^--12^-12^--12^-12^-12^--12-12-12-12/13--13/8-8/10------|
A|---------------------------------------------------------------|
E|---------------------------------------------------------------|

  0:30
e|---------------------------------------------------------------|
B|---------------------------------------------------------------|
G|---------------------------------------------------------------|
D|-6/8--s10-10-10-11-10-8-6------------------6-10-11-10-8-6-5/6--|
A|--------------------------10-10/11-10-8--6---------------------|
E|---------------------------------------------------------------|

  0:58
e|---------------------------------------------------------------|
B|---------------------------------------------------------------|
G|---------------------------------------------------------------|
D|-11/12-12-12-12-12-12-12-12-12-12-12-12/13-13-13/8-8/10--------|
A|---------------------------------------------------------------|
E|---------------------------------------------------------------|

  1:16
e|---------------------------------------------------------------|
B|---------------------------------------------------------------|
G|---------------------------------------------------------------|
D|-6/8--su10-10-10-11-10-8-6------------------6-10-11-10-8-6-5/6-|
A|--------------------------10-10/11-10-8--6---------------------|
E|---------------------------------------------------------------|

  1:42
e|---------------------------------------------------------------|
B|----------------------------------9-11-9-----------------------|
G|------8-10/11-10-8-6/8-------8-11--------10-11p10-8------------|
D|-6/10-------------------6/10-----------------------------------|
A|---------------------------------------------------------------|
E|---------------------------------------------------------------|

  2:06 (Bongos come in)   2:34                  2:46         2:58 
e|-----------------------|---------------------|------------|--------|
B|-----------------------|---------------------|----15------|--------|
G|---6/8-6/5-------------|--------12-10/5------|-------12---|--------|
D|-6---------8-6/8-7/8'--|-10/12'---------12---|-12---------|--5/8'--|
A|-----------------------|---------------------|------------|--------|
E|-----------------------|---------------------|------------|--------|

(Voices come in with bass)

  Voice notes
  
e|------------------------|
B|------------------------|
G|-10-10-10----10-10-12---|
D|----------12------------|
A|------------------------|
E|------------------------|
  
 (Saxophone comes back in)

  4:27            4:38                        4:51          5:02
e|---------------|---------------------------|-------------|-----------|
B|---------------|---------------------------|-------------|-----------|
G|-------12-10---|---------------------------|-------12----|-----------|
D|-10/12'--------|-10/12'-10/12-10/12-10/12--|-9/10---12---|--10'-8----|
A|---------------|---------------------------|-------------|-----------|
E|---------------|---------------------------|-------------|-----------|

(Sax plays in bursts along with voices)

The remainder is improv, so have fun with it.
            
Submit corrections

comments powered by Disqus
↑ Back to top | Yoko Kanno Tabs for Space Lion. Lyrics for acoustic guitar and electric guitar. 1 Tablatures and chords are parodies/interpretations of the original songs. You may use it for private study, scholarship, research or language learning purposes only