» » »

Yoko Kanno, Could You Bite The Hand? Tabs (ver.1)

Artists:  A B C D E F G H I J K L M N O P Q R S T U V W X Y Z # 

Could You Bite The Hand? Tabs (ver.1)

Yoko Kanno Tabs
 Rating:
3.8/5 (5 votes)
Could You Bite The Hand? lessons Tabs too difficult? Try these video lessons and learn fast
1
                -------------------------------------------------------------------------------
-------------------------------------------------------------------------------

Tuning: Standard, Capo on 4th fred


Still far from being perfect, but I think it's good enough for playing it.
Since the rhythm in this song is pretty wild I only made an orientation, so just 
let the music guide you for your own wild rhythm!
Especially the ending is still far off - feel free to use this tab to make a 
better version out of it.

Intro:

   +
e|---------|
B|-0-------|
G|-7-------|
D|-7-------|
A|-7-------|
E|-7-------|


Verse 1:
note: the free G-, B- and e-strings are occasionally played with the powerchords.

                                        + + + + + + + +

e|-----------------------|------------------------------|
B|-----------------------|--------------7-7-7-7-7-7-7-7-|
G|-----------------------|--------------7-7-7-7-7-7-7-7-|
D|-2--2-2-2--7---7--7--7-|-2--2-2-2--7--7-7-7-7-7-7-7-7-|
A|-2--2-2-2--7---7--7--7-|-2--2-2-2--7--7-7-7-7-7-7-7-7-|
E|-0--0-0-0--5---5--5--5-|-0--0-0-0--5------------------|

e|-----------------------|---------------------------|
B|-----------------------|---------------------------|
G|-----------------------|---------------------------|
D|-2--2-2-2--7---7--7--7-|-2--2-2-2--2---2--2--2--2--|
A|-2--2-2-2--7---7--7--7-|-2--2-2-2--2---2--2--2--2--|
E|-0--0-0-0--5---5--5--5-|-0--0-0-0--0---0--0--0--0--|

e|-3--3-3--3-3-3-3--3-3--3-3-3-|
B|-3--3-3--3-3-3-3--3-3--3-3-3-|
G|-0--0-0--0-0-0-0--0-0--0-0-0-|
D|-4--4-4--4-4-4-4--4-4--4-4-4-|
A|-5--5-5--5-5-5-5--5-5--5-5-5-|
E|-----------------------------|

Repeat 1 time

e|-0--0-------0--0----0-0-0-|
B|-1--1-------3--3----3-3-3-|
G|-0--0-------0--0----0-0-0-|
D|-3--3-------5--5----5-5-5-|
A|-3--3-------5--5----5-5-5-|
E|--------------------------|

Chorus:

e|-0--0--0--0--0--0--0--0--0--0--0--0--0--0--0--0--0--0--0--0--0---0-0--|
B|-0--0--0--3--3--3--0--0--0--3--3--3--1--1--1--3--3--3--5--5--5---7-7--|
G|-2--2--2--0--0--0--0--0--0--0--0--0--0--0--0--0--0--0--6--6--6---8-8--|
D|-2--2--2--5--5--5--2--2--2--5--5--5--2--2--2--5--5--5--7--7--7---9-9--|
A|-0--0--0--5--5--5--2--2--2--5--5--5--0--0--0--5--5--5--7--7--7---9-9--|
E|-------------------0--0--0--------------------------------------------|

e|-0--0--0--3--3--3--3--3--3--3--3--3--0--0--0--3---3-3-3--|
B|-0--0--0--3--3--3--0--0--0--3--3--3--1--1--1--3---3-3-3--|
G|-2--2--2--0--0--0--0--0--0--0--0--0--0--0--0--0---0-0-0--|
D|-2--2--2--5--5--5--2--2--2--5--5--5--3--3--3--5---5-5-5--|
A|-0--0--0--5--5--5--2--2--2--5--5--5--3--3--3--5---5-5-5--|
E|-------------------0--0--0-------------------------------|

Verse 2:
                                        + + + + + + + +
e|-----------------------|------------------------------|
B|-----------------------|--------------7-7-7-7-7-7-7-7-|
G|-----------------------|--------------7-7-7-7-7-7-7-7-|
D|-2--2-2-2--7---7--7--7-|-2--2-2-2--7--7-7-7-7-7-7-7-7-|
A|-2--2-2-2--7---7--7--7-|-2--2-2-2--7--7-7-7-7-7-7-7-7-|
E|-0--0-0-0--5---5--5--5-|-0--0-0-0--5------------------|
                 +  + + +   +  +  +  +  +  + + + + +
e|------------------------|---------------------------|
B|---------------7--7-7-7-|-7--7--7--7--7--7-7-7-7-7--|
G|---------------7--7-7-7-|-7--7--7--7--7--7-7-7-7-7--|
D|-2--2-2-2--7---7--7-7-7-|-7--7--7--7--7--7-7-7-7-7--|
A|-2--2-2-2--7---7--7-7-7-|-7--7--7--7--7--7-7-7-7-7--|
E|-0--0-0-0--5------------|---------------------------|


e|-----------------------|---------------------|
B|-----------------------|---------------------|
G|-----------------------|---------------------|
D|-2--2-2-2--7---7--7--7-|-2--2-2-2--7---7--7--|
A|-2--2-2-2--7---7--7--7-|-2--2-2-2--7---7--7--|
E|-0--0-0-0--5---5--5--5-|-0--0-0-0--5---5--5--|

e|-----------------------|---------------------------|
B|-----------------------|---------------------------|
G|-----------------------|---------------------------|
D|-2--2-2-2--7---7--7--7-|-2--2-2-2--2---2--2--2--2--|
A|-2--2-2-2--7---7--7--7-|-2--2-2-2--2---2--2--2--2--|
E|-0--0-0-0--5---5--5--5-|-0--0-0-0--0---0--0--0--0--|

e|-3--3-3--3-3-3-----------------------------------|
B|-3--3-3--3-3-3-----------------------------------|
G|-0--0-0--0-0-0--0h2p0h2p0h2p0-------2p0h2p0h2p0--|
D|-4--4-4--4-4-4----------------4p0----------------|
A|-5--5-5--5-5-5-----------------------------------|
E|-------------------------------------------------|


e|-----------------------|---------------------|
B|-----------------------|---------------------|
G|-----------------------|---------------------|
D|-2--2-2-2--7---7--7--7-|-2--2-2-2--7---7--7--|
A|-2--2-2-2--7---7--7--7-|-2--2-2-2--7---7--7--|
E|-0--0-0-0--5---5--5--5-|-0--0-0-0--5---5--5--|

e|-----------------------|---------------------------|
B|-----------------------|---------------------------|
G|-----------------------|---------------------------|
D|-2--2-2-2--7---7--7--7-|-2--2-2-2--2---2--2--2--2--|
A|-2--2-2-2--7---7--7--7-|-2--2-2-2--2---2--2--2--2--|
E|-0--0-0-0--5---5--5--5-|-0--0-0-0--0---0--0--0--0--|

e|-3--3-3--3-3-3-3--3-3--3-3-3-|
B|-3--3-3--3-3-3-3--3-3--3-3-3-|
G|-0--0-0--0-0-0-0--0-0--0-0-0-|
D|-4--4-4--4-4-4-4--4-4--4-4-4-|
A|-5--5-5--5-5-5-5--5-5--5-5-5-|
E|-----------------------------|


e|-----------------------|---------------------|
B|-----------------------|---------------------|
G|-----------------------|---------------------|
D|-2--2-2-2--7---7--7--7-|-2--2-2-2--7---7--7--|
A|-2--2-2-2--7---7--7--7-|-2--2-2-2--7---7--7--|
E|-0--0-0-0--5---5--5--5-|-0--0-0-0--5---5--5--|

e|-----------------------|---------------------------|
B|-----------------------|---------------------------|
G|-----------------------|---------------------------|
D|-2--2-2-2--7---7--7--7-|-2--2-2-2--2---2--2--2--2--|
A|-2--2-2-2--7---7--7--7-|-2--2-2-2--2---2--2--2--2--|
E|-0--0-0-0--5---5--5--5-|-0--0-0-0--0---0--0--0--0--|

e|-3----------------------------------|
B|-3----------------------------------|
G|-0----------------------------------|
D|-4--4h5-5-5-5-5p4-4h5-5-5-5-5-5-5p4-|
A|-5----------------------------------|
E|------------------------------------|


e|-----------------------|---------------------|
B|-----------------------|---------------------|
G|-----------------------|---------------------|
D|-2--2-2-2--7---7--7--7-|-2--2-2-2--7---7--7--|
A|-2--2-2-2--7---7--7--7-|-2--2-2-2--7---7--7--|
E|-0--0-0-0--5---5--5--5-|-0--0-0-0--5---5--5--|

e|-----------------------|---------------------------|
B|-----------------------|---------------------------|
G|-----------------------|---------------------------|
D|-2--2-2-2--7---7--7--7-|-2--2-2-2--2---2--2--2--2--|
A|-2--2-2-2--7---7--7--7-|-2--2-2-2--2---2--2--2--2--|
E|-0--0-0-0--5---5--5--5-|-0--0-0-0--0---0--0--0--0--|

e|-5--5-5h6--6-6p5-5-5h6-6-6p3-3--|
B|-3--3-3----3-3---3-3---3-3---3--|
G|-0--0-0----0-0---0-0---0-0---0--|
D|-4--4-4----4-4---4-4---4-4---4--|
A|-5--5-5----5-5---5-5---5-5---5--|
E|--------------------------------|

e|-0--0--0------0--0----0-0-0-|
B|-1--1--1------3--3----3-3-3-|
G|-0--0--0------0--0----0-0-0-|
D|-3--3--3------5--5----5-5-5-|
A|-3--3--3------5--5----5-5-5-|
E|----------------------------|

Chorus:

e|-0--0--0--0--0--0--0--0--0--0--0--0--0--0--0--0--0--0--0--0--0---0-0--|
B|-0--0--0--3--3--3--0--0--0--3--3--3--1--1--1--3--3--3--5--5--5---7-7--|
G|-2--2--2--0--0--0--0--0--0--0--0--0--0--0--0--0--0--0--6--6--6---8-8--|
D|-2--2--2--5--5--5--2--2--2--5--5--5--2--2--2--5--5--5--7--7--7---9-9--|
A|-0--0--0--5--5--5--2--2--2--5--5--5--0--0--0--5--5--5--7--7--7---9-9--|
E|-------------------0--0--0--------------------------------------------|

e|-0--0--0--3--3--3--3--3--3--3--3--3--0--0--0--3---3-3-3--|
B|-0--0--0--3--3--3--0--0--0--3--3--3--1--1--1--3---3-3-3--|
G|-2--2--2--0--0--0--0--0--0--0--0--0--0--0--0--0---0-0-0--|
D|-2--2--2--5--5--5--2--2--2--5--5--5--3--3--3--5---5-5-5--|
A|-0--0--0--5--5--5--2--2--2--5--5--5--3--3--3--5---5-5-5--|
E|-------------------0--0--0-------------------------------|

e|-0--0-0--0--0-0--0--0--0--3--3--3-|
B|-1--1-1--1--1-1--1--1--1--3--3--3-|
G|-0--0-0--0--0-0--0--0--0--0--0--0-|
D|-2--2-2--2--2-2--3--3--3--5--5--5-|
A|-0--0-0--0--0-0--3--3--3--5--5--5-|
E|----------------------------------|

Ending:

Still far off from the original, but at least it fits ;).
Just leave some of the higher strings out and play the middle strings
faster for the last part.

e|-0--0-0-0-0--0--0--0--0--0-0-0-0-x-0--0--0--0--|
B|-1--1-1-1-1--1--1--1--1--1-1-1-3-x-1--1--1--1--|
G|-0--0-0-0-0--0--0--0--0--0-0-0-0-x-0--0--0--0--|
D|-2--2-2-2-2--2--2--2--2--2-2-2-4-x-2--2--2--2--|
A|-0--0-0-0-3--3--3--3--0--0-0-0-5-x-3--3--3--3--|
E|-----------------------------------------------|

e|-0--0-0-0-0--0--0--0--0--0-0-0-5-x-3--3--3--3--|
B|-1--1-1-1-1--1--1--1--1--1-1-1-3-x-1--1--1--1--|
G|-0--0-0-0-0--0--0--0--0--0-0-0-0-x-0--0--0--0--|
D|-2--2-2-2-2--2--2--2--2--2-2-2-4-x-2--2--2--2--|
A|-0--0-0-0-3--3--3--3--0--0-0-0-5-x-3--3--3--3--|
E|-----------------------------------------------|

multiple times

e|-3--|
B|-3--|
G|-0--|
D|-2--|
A|-0--|
E|----|

************************************

| /   slide up
| \   slide down
| h   hammer-on
| p   pull-off
| ~   vibrato
| +   harmonic
| x   Mute note
| b   Bend
| pb  Pre-bend
| br  Bend release
| pbr Pre-bend release
| brb Bend release bend

************************************
            
Submit corrections

comments powered by Disqus
↑ Back to top | Yoko Kanno Tabs for Could You Bite The Hand?. Lyrics for acoustic guitar and electric guitar. 1 Tablatures and chords are parodies/interpretations of the original songs. You may use it for private study, scholarship, research or language learning purposes only