» » »

Yoko Kanno, Call Me Call Me Tabs (ver.2)

Artists:  A B C D E F G H I J K L M N O P Q R S T U V W X Y Z # 

Call Me Call Me Tabs (ver.2)

Yoko Kanno Tabs
 Rating:
4/5 (4 votes)
Call Me Call Me lessons Tabs too difficult? Try these video lessons and learn fast
1
                Call Me Call Me
Composed by Yoko Kanno


Capo 3rd fret
Tab relative to capo


         Gomit3
|-------|--------3-----3-3-3-----3-3---3|--------3-----3-3-3---3---3---3|
|-------|--------3-----3-1-3-----1-3---3|--------3-----3-1-3---1---3---3|
|-------|--------0-----0-0-0-----0-0---0|--------0-----0-0-0---0---0---0|
|-------|---(0)--0-----0-0-0-----0-0---0|--------0-----0-0-0---0---0---0|
|-------|-------------------------------|-------------------------------|
|----1h3|3---3--------------------------|3---3--------------------------|
 4   &   1   &   2   &   3   &   4   &   1   &   2   &   3   &   4   &  


 Gomit3
|--------3-----3-3-3---3---3----|--------3-----3-3-3---3-3-3---3|
|--------3-----3-1-3---1---3----|--------3-----3-1-3---3-1-3---3|
|--------0-----0-0-0---0---0----|--------0-----0-0-0---0-0-0---0|
|--------0-----0-0-0---0---0----|--------0-----0-0-0---0-0-0---0|
|-------------------------------|-------------------------------|
|3---3-----------------------1h3|3---3--------------------------|
 1   &   2   &   3   &   4   &   1   &   2   &   3   &   4   &  


Verse

 Gomit3                          Bb
|--------3-----3-3-3---3-3-3---3|--------1-----1-1-1---1-1-1---1|
|--------3-----3-1-3---3-1-3---3|--------3-----3-1-3---3-1-3---3|
|--------0-----0-0-0---0-0-0---0|--------3-----3-3-3---3-3-3---3|
|--------0-----0-0-0---0-0-0---0|--------3-----3-3-3---3-3-3---3|
|-------------------------------|1---1--------------------------|
|3---3--------------------------|-------------------------------|
 1   &   2   &   3   &   4   &   1   &   2   &   3   &   4   &  

     I close my eyes and I keep seeing things        Rainbow wa-
     I had your number quite some time ago           Back when we


 Cadd9                           F
|--------0-----0-0-0---0-0-0---0|--------1-----1-1-1---1-1-1---1|
|--------3-----3-1-3---3-1-3---3|--------1-----1-1-1---1-1-1---1|
|--------0-----0-0-0---0-0-0---0|2---0h2-2-----2-0-2---2-2-0---2|
|----2---2-----2-2-2---2-2-2---2|-------------------------------|
|3------------------------------|-------------------------------|
|-------------------------------|-------------------------------|
 1   &   2   &   3   &   4   &   1   &   2   &   3   &   4   &  

     ter falls       Sunny  li  -  quid dream
     were young      But I  had  to grow


 Gomit3                          Bb
|--------3-----3-3-3---3-3-3---3|--------1-----1-1-1---1-1-1---1|
|--------3-----3-1-3---3-1-3---3|--------3-----3-1-3---3-1-3---3|
|0-------0-----0-0-0---0-0-0---0|--------3-----3-3-3---3-3-3---3|
|--------0-----0-0-0---0-0-0---0|--------3-----3-3-3---3-3-3---3|
|-------------------------------|1---1--------------------------|
|----3--------------------------|-------------------------------|
 1   &   2   &   3   &   4   &   1   &   2   &   3   &   4   &  

     Confusion creeps inside me raining doubt        Got to get
     Ten thousand years I've searched it seems and now Got to get


 Cadd9                           F
|--------0-----0-0-0---0-0-0---0|--------1-----1-1-1---1-1-1---1|
|--------3-----3-1-3---3-1-3---3|--------1-----1-1-1---1-1-1---1|
|--------0-----0-0-0---0-0-0---0|2---0h2-2-----2-0-2---2-2-0---2|
|----2---2-----2-2-2---2-2-2---2|-------------------------------|
|3------------------------------|-------------------------------|
|-------------------------------|-------------------------------|
 1   &   2   &   3   &   4   &   1   &   2   &   3   &   4   &  

     to you          But I  don't   know how
     to you          Won't you tell me how

Pre-chorus

 Em                              Bm
|--------3---3-3---3-2-0-3-3----|2---2---2---2-2-2-0---0-0-0-0-0|
|--------0---0-0---0-0-0-0-0----|3---3---3---3-3-3-3---3-3-3-3-3|
|0---0---0---0-0---0-0-0-0-0----|4---4---4---4-4-4-4---4-4-4-4-4|
|2---2---2---2-2---2-2-2-2-2----|4---4---4---4-4-4-4---4-4-4-4-4|
|2---2--------------------------|2---2---2---2-2-2-2---2-2-2-2-2|
|0---0--------------------------|-------------------------------|
 1   &   2   &   3   &   4   &   1   &   2   &   3   &   4   &  

         Call    me      call        me


 Dm9                             Aadd9
|0---0---0---0-0-0-0-0-0-0-0-0-0|0---0---0---0-0-0-0-0-0-0-0-0-0|
|6---6---6---6-6-6-6-6-6-6-6-6-6|0---0---0---0-0-0-0-0-0-0-0-0-0|
|5---5---5---5-5-5-5-5-5-5-5-5-5|2---2---2---2-2-2-2-2-2-2-2-2-2|
|7---7---7---7-7-7-7-7-7-7-7-7-7|2---2---2---2-2-2-2-2-2-2-2-2-2|
|5---5---5---5-5-5-5-5-5-5-5-5-5|0---0---0---0-0-0-0-0-0-0-0-0-0|
|-------------------------------|-------------------------------|
 1   &   2   &   3   &   4   &   1   &   2   &   3   &   4   &  

 Let me know it's    al  -  right
 Let me know you     are    there


 Em                              Bm
|--------3---3-3---3-2-0-3-3----|2---2---2---2-2-2-0---0-0-0-0-0|
|--------0---0-0---0-0-0-0-0----|3---3---3---3-3-3-3---3-3-3-3-3|
|0---0---0---0-0---0-0-0-0-0----|4---4---4---4-4-4-4---4-4-4-4-4|
|2---2---2---2-2---2-2-2-2-2----|4---4---4---4-4-4-4---4-4-4-4-4|
|2---2--------------------------|2---2---2---2-2-2-2---2-2-2-2-2|
|0---0--------------------------|-------------------------------|
 1   &   2   &   3   &   4   &   1   &   2   &   3   &   4   &  
         Call    me      call        me
                                                             I


 Dm9                             Aadd9
|0---0---0---0-0-0-0-0-0-0-0-0-0|0---0---0---0-0-0-0-0-0-0-0-0-0|
|6---6---6---6-6-6-6-6-6-6-6-6-6|0---0---0---0-0-0-0-0-0-0-0-0-0|
|5---5---5---5-5-5-5-5-5-5-5-5-5|2---2---2---2-2-2-2-2-2-2-2-2-2|
|7---7---7---7-7-7-7-7-7-7-7-7-7|2---2---2---2-2-2-2-2-2-2-2-2-2|
|5---5---5---5-5-5-5-5-5-5-5-5-5|0---0---0---0-0-0-0-0-0-0-0-0-0|
|-------------------------------|-------------------------------|
 1   &   2   &   3   &   4   &   1   &   2   &   3   &   4   &  

 Don't  you think it's 'bout time  Please won't you call and  Ease-
 wanna know you      still   care   Come on now won't you


Chorus

 Am7             G               D
|0---0-0-0-0-0-0-3---3-3-3-3-3-3|2---2-2-2-2-2-0---0---2---2-2-2|
|1---1-1-1-1-1-1-0---0-0-0-0-0-0|3---3-3-3-3-3-3---3---3---3-3-3|
|0---0-0-0-0-0-0-0---0-0-0-0-0-0|2---2-2-2-2-2-2---2---2---2-2-2|
|2---2-2-2-2-2-2-0---0-0-0-0-0-0|0---0-0-0-0-0-0---0---0---0-0-0|
|0---0-0-0-0-0-0-2---2-2-2-2-2-2|-------------------------------|
|----------------3---3-3-3-3-3-3|-------------------------------|
 1   &   2   &   3   &   4   &   1   &   2   &   3   &   4   &  

                 my          mind



 Am7             G               D
|0---0-0-0-0-0-0-3---3-3-3-3-3-3|2---2-2-2-2-2-2---2---2---2-2-2|
|1---1-1-1-1-1-1-0---0-0-0-0-0-0|3---3-3-3-3-3-3---3---3---3-3-3|
|0---0-0-0-0-0-0-0---0-0-0-0-0-0|2---2-2-2-2-2-2---2---2---2-2-2|
|2---2-2-2-2-2-2-0---0-0-0-0-0-0|0---0-0-0-0-0-0---0---0---0-0-0|
|0---0-0-0-0-0-0-2---2-2-2-2-2-2|-------------------------------|
|----------------3---3-3-3-3-3-3|-------------------------------|
 1   &   2   &   3   &   4   &   1   &   2   &   3   &   4   &  

 Rea     -       sons            for me to find     you



 Am7             G               D
|0---0-0-0-0-0-0-3---3-3-3-3-3-3|2---2-2-2-2-2-2---2---2---2-2-2|
|1---1-1-1-1-1-1-0---0-0-0-0-0-0|3---3-3-3-3-3-3---3---3---3-3-3|
|0---0-0-0-0-0-0-0---0-0-0-0-0-0|2---2-2-2-2-2-2---2---2---2-2-2|
|2---2-2-2-2-2-2-0---0-0-0-0-0-0|0---0-0-0-0-0-0---0---0---0-0-0|
|0---0-0-0-0-0-0-2---2-2-2-2-2-2|-------------------------------|
|----------------3---3-3-3-3-3-3|-------------------------------|
 1   &   2   &   3   &   4   &   1   &   2   &   3   &   4   &  

 Peace           of          mind                What can I do


                                                 First time only - - - - - - - -
 C               F               D       G       Aadd9
|----------------------------1--|2-------3------|--------0-----0-0-0---0-0-0---0|
|----------1-------------1------|3-------0------|--------0-----0-0-0---0-0-0---0|
|--------0-----------2----------|2-------0------|--------2-----2-2-2---2-2-2---2|
|----0h2---------3--------------|0-------0------|--------2-----2-0-2---2-0-2---2|
|3------------------------------|--------2------|0------------------------------|
|-------------------------------|--------3------|-------------------------------|
 1   &   2   &   3   &   4   &   1   &   2   &   1   &   2   &   3   &   4   &

                              to get me to you


 Second time only - - - - - - -
Aadd9
|0-------0-------0-------0------|0-------0-------0-------0------|
|0-------0-------0-------0------|0-------0-------0-------0------|
|2---2-------2-------2-------2--|----2-------2-------2----------|
|2------------------------------|-------------------------------|
|0------------------------------|----------------------------3--|
|-------------------------------|-------------------------------|
 1   &   2   &   3   &   4   &   1   &   2   &   3   &   4   &  



|0-------0-------0-------0------|0-------0-------0-------0------|
|0-------0-------0-------0------|0-------0-------0-------0------|
|----2-------2-------2-------2--|----2-------2-------2----------|
|-------------------------------|-------------------------------|
|-------------------------------|----------------------------1--|
|-------------------------------|-------------------------------|
 1   &   2   &   3   &   4   &   1   &   2   &   3   &   4   &  




|0-------0-------0-------0------|0-------0-------0-------0------|
|0-------0-------0-------0------|0-------0-------0-------0------|
|----2-------2-------2----------|----2-------2-------2----------|
|-------------------------------|-------------------------------|
|-------------------------------|----------------------------0--|
|----------------------------2--|-------------------------------|
 1   &   2   &   3   &   4   &   1   &   2   &   3   &   4   &  


Repeat this section twice.

On the third time through it ends like this:


|0-------0-------0-------0------|0-------0-------3---3----------|
|0-------0-------0-------0------|0-------0-------0---0----------|
|----2-------2-------2----------|----2-------2---0---0----------|
|-------------------------------|----------------0---0----------|
|-------------------------------|----------------2---2----------|
|----------------------------2--|----------------3---3----------|
 1   &   2   &   3   &   4   &   1   &   2   &   3   &   4   &  

                                   Come on now won't you    Ease-



 Am7             G               D
|-------------------------------|-------------------------------|
|--------1-------0--------------|-------------------------------|
|------------------------0------|----------------0--------------|
|----2---------------0----------|4-------------------4----------|
|0------------------------------|--------5---------------5------|
|-------------------------------|----5--------------------------|
 1   &   2   &   3   &   4   &   1   &   2   &   3   &   4   &  

                 My         mind



 Am7             G               D
|-------------------------------|-------------------------------|
|--------1-------0--------------|-------------------------------|
|------------------------0------|----------------0--------------|
|----2---------------0----------|4-------------------4----------|
|0------------------------------|--------5---------------5------|
|-------------------------------|----5--------------------------|
 1   &   2   &   3   &   4   &   1   &   2   &   3   &   4   &  

Rea      -       sons           for me  to  find    you 




 Am7             G               D
|-------------------------------|-------------------------------|
|--------1-------0--------------|-------------------------------|
|------------------------0------|----------------0--------------|
|----2---------------0----------|4-------------------4----------|
|0------------------------------|--------5---------------5------|
|-------------------------------|----5--------------------------|
 1   &   2   &   3   &   4   &   1   &   2   &   3   &   4   &  

Peace            of         mind



 Am7             G               D
|-------------------------------|----------------3---2----------|
|--------1-------0--------------|--------3---------------3------|
|------------------------0------|-------------------------------|
|----2---------------0----------|4------------------------------|
|0------------------------------|-------------------------------|
|-------------------------------|----5--------------------------|
 1   &   2   &   3   &   4   &   1   &   2   &   3   &   4   &  

Rea      -      sons            for liv-ing my  life



 C               G               D
|0---0-0-0-0-0-0-3---3-3-3-3-3-3|2---2-2-2-2-2-0---0---2---2-2-2|
|1---1-1-1-1-1-1-0---0-0-0-0-0-0|3---3-3-3-3-3-3---3---3---3-3-3|
|0---0-0-0-0-0-0-0---0-0-0-0-0-0|2---2-2-2-2-2-2---2---2---2-2-2|
|2---2-2-2-2-2-2-0---0-0-0-0-0-0|0---0-0-0-0-0-0---0---0---0-0-0|
|3---3-3-3-3-3-3-2---2-2-2-2-2-2|-------------------------------|
|----------------3---3-3-3-3-3-3|-------------------------------|
 1   &   2   &   3   &   4   &   1   &   2   &   3   &   4   &  

Ease             my          mind



 Am7             G               D
|0---0-0-0-0-0-0-3---3-3-3-3-3-3|2---2-2-2-2-2-2---2---2---2-2-2|
|1---1-1-1-1-1-1-0---0-0-0-0-0-0|3---3-3-3-3-3-3---3---3---3-3-3|
|0---0-0-0-0-0-0-0---0-0-0-0-0-0|2---2-2-2-2-2-2---2---2---2-2-2|
|2---2-2-2-2-2-2-0---0-0-0-0-0-0|0---0-0-0-0-0-0---0---0---0-0-0|
|0---0-0-0-0-0-0-2---2-2-2-2-2-2|-------------------------------|
|----------------3---3-3-3-3-3-3|-------------------------------|
 1   &   2   &   3   &   4   &   1   &   2   &   3   &   4   &  

 Rea     -       sons            for me to know     you



 Am7             G               D
|0---0-0-0-0-0-0-3---3-3-3-3-3-3|2---2-2-2-2-2-2---2---2---2-2-2|
|1---1-1-1-1-1-1-0---0-0-0-0-0-0|3---3-3-3-3-3-3---3---3---3-3-3|
|0---0-0-0-0-0-0-0---0-0-0-0-0-0|2---2-2-2-2-2-2---2---2---2-2-2|
|2---2-2-2-2-2-2-0---0-0-0-0-0-0|0---0-0-0-0-0-0---0---0---0-0-0|
|0---0-0-0-0-0-0-2---2-2-2-2-2-2|-------------------------------|
|----------------3---3-3-3-3-3-3|-------------------------------|
 1   &   2   &   3   &   4   &   1   &   2   &   3   &   4   &  

 Peace           of          mind                What can I do



 C               F               D       G
|----------------------------1--|2-------3------|
|----------1-------------1------|3-------0------|
|--------0-----------2----------|2-------0------|
|----0h2---------3--------------|0-------0------|
|3------------------------------|--------2------|
|-------------------------------|--------3------|
 1   &   2   &   3   &   4   &   1   &   2   &

                            to get me    to you



Aadd9
|--------0-----0-0-0---0-0-0---0|--------0-----0-0-0---0-0-0---0|
|--------0-----0-3-0---0-3-0---0|--------0-----0-3-0---0-3-0---0|
|2---2---2-----2-2-2---2-2-2---2|2---2---2-----2-2-2---2-2-2---2|
|2---2---2-----2-2-2---2-2-2---2|2---2---2-----2-2-2---2-2-2---2|
|0---0---0-----0-0-0---0-0-0---0|0---0---0-----0-0-0---0-0-0---0|
|-------------------------------|-------------------------------|
 1   &   2   &   3   &   4   &   1   &   2   &   3   &   4   &  




|--------0-----0-0-0---0-0-0---0|0---0---0---0------------------|
|--------0-----0-3-0---0-3-0---0|0---0---0---0------------------|
|2---2---2-----2-2-2---2-2-2---2|2---2---2---2------------------|
|2---2---2-----2-2-2---2-2-2---2|2---2---2---2------------------|
|0---0---0-----0-0-0---0-0-0---0|0---0---0---0------------------|
|-------------------------------|-------------------------------|
 1   &   2   &   3   &   4   &   1   &   2   &   3   &   4   &  
            
Submit corrections

comments powered by Disqus
↑ Back to top | Yoko Kanno Tabs for Call Me Call Me. Lyrics for acoustic guitar and electric guitar. 1 Tablatures and chords are parodies/interpretations of the original songs. You may use it for private study, scholarship, research or language learning purposes only