>
 >
Autumn In Ganymede

Autumn In Ganymede Bass Tabs

Yoko Kanno - Autumn In Ganymede chords, tabs, tablatures, lyrics

Guitar lessons | Add/correct | Request | Top 50 tabs Artists:  A B C D E F G H I J K L M N O P Q R S T U V W X Y Z 0-9

Autumn In Ganymede Bass Tabs – Yoko Kanno

CD, Sheet music, Poster

Do you like Autumn In Ganymede? Share with your friends now
Bass Tabs
Autumn in Ganymede
Yoko Kanno
Cowboy Bebop - Blue

Drop D tuning
--------------------------------------------------------------------
Notes:  This song is quite involved, but it's easy once your able
        to get the licks down and the timing.  I broke it up into
        parts the best I could to help you follow along.  Keep the
        main riff fluid and free.  Enjoy, it's a great song.
--------------------------------------------------------------------
Autumn in Ganymede


Intro:

G|----------------------------------------------------|
D|----------------------------------------------------|
A|----------------------------0--5\-------------------|
D|--0---0--3--5--/7--0--3--5--------------------------|

G|----------------------------------------------------|
D|----------------------------------------------------|
A|----------------------------------------------------|
D|--0---3--5--/7--0--3--5--7-0------------------------|

G|----------------------------------------------------|
D|----------------------------------------------------|
A|----------------------------------------------------|
D|--0---3--5--/7--0--3--5--7-0------------------------|

G|----------------------------------------------------|
D|----------------------------------------------------|
A|------------------------0--5\-----------------------|  End intro.
D|--0--3--5--/7--0--3--5------------------------------|



Percussion starts

G|----------------------------------------------------|
D|----------------------------------------------------|
A|----------------------------------------------------|
D|--0---3--5--/7--0--3--5--7-0------------------------|

G|----------------------------------------------------|
D|----------------------------------------------------|
A|------------------------0--5\-----------------------|  
D|--0--3--5--/7--0--3--5------------------------------|

G|----------------------------------------------------|
D|----------------------------------------------------|
A|----------------------------------------------------|
D|--0---3--5--/7--0--3--5--7-0------------------------|

G|----------------------------------------------------|
D|----------------------------------------------------|
A|------------------------0--5\-----------------------|  
D|--0--3--5--/7--0--3--5------------------------------|

G|----------------------------------------------------|
D|----------------------------------------------------|
A|----------------------------------------------------|
D|--0---3--5--/7--0--3--5--7-0------------------------|

G|----------------------------------------------------|
D|----------------------------------------------------|
A|------------------------0--5\-----------------------|  
D|--0--3--5--/7--0--3--5------------------------------|



Horns enter:

G|----------------------------------------------------|
D|----------------------------------------------------|
A|----------------------------------------------------|
D|--0---3--5--/7--0--3--5--7-0------------------------|

G|----------------------------------------------------|
D|----------------------------------------------------|
A|------------------------0--5\-----------------------|  
D|--0--3--5--/7--0--3--5------------------------------|

G|----------------------------------------------------|
D|----------------------------------------------------|
A|----------------------------------------------------|
D|--0---3--5--/7--0--3--5--7-0------------------------|

G|----------------------------------------------------|
D|----------------------------------------------------|
A|------------------------0--3--3-3-3--3--3--3--3-----|
D|--0--3--5--/7--0--3--5------------------------------|

G|----------------------------------------------------|
D|----------------------------------------------------|
A|------------------------0--3--3-3-3--3--3--3--3-----|
D|--0--3--5--/7--0--3--5------------------------------|

G|----------------------------------------------------|
D|----------------------------------------------------|
A|----------------------------------------------------|
D|--0---3--5--/7--0--3--5--7-0------------------------|

G|----------------------------------------------------|
D|----------------------------------------------------|
A|--------------5-------0h3h5p3p0---------------------|
D|--0---3--5--7---0h3h5------------5p3p0--------------|



Second horn part:

G|----------------------------------------------------|
D|----------------------------------------------------|
A|----------------------------------------------------|
D|--0---3--5--/7--0--3--5--7-0------------------------|

G|----------------------------------------------------|
D|----------------------------------------------------|
A|------------------------0--5\-----------------------|
D|--0--3--5--/7--0--3--5------------------------------|

G|----------------------------------------------------|
D|----------------------------------------------------|
A|----------------------------------------------------|
D|--0---3--5--/7--0--3--5--7-0------------------------|

G|----------------------------------------------------|
D|----------------------------------------------------|
A|------------------------0--5\-----------------------|
D|--0--3--5--/7--0--3--5------------------------------|

G|----------------------------------------------------|
D|----------------------------------------------------|
A|----------------------------------------------------|
D|--0---3--5--/7--0--3--5--7-0------------------------|

G|----------------------------------------------------|
D|----------------------------------------------------|
A|------------------------0--3--3-3-3--3--3--3--3-----|
D|--0--3--5--/7--0--3--5------------------------------|

G|----------------------------------------------------|
D|----------------------------------------------------|
A|------------------------0--3--3-3-3--3--3--3--3-----|
D|--0--3--5--/7--0--3--5------------------------------|

G|----------------------------------------------------|
D|----------------------------------------------------|
A|----------------------------------------------------|
D|--0---3--5--/7--0--3--5--7-0------------------------|

G|----------------------------------------------------|
D|----------------------------------------------------|
A|------------------------0--5\-----------------------|
D|--0--3--5--/7--0--3--5------------------------------|



Guitar solo:

G|----------------------------------------------------|
D|----------------------------------------------------|
A|----------------------------------------------------|
D|--0---3--5--/7--0--3--5--7-0------------------------|

G|----------------------------------------------------|
D|----------------------------------------------------|
A|----------------------------------------------------|
D|--0---3--5--/7--0--3--5--7-0------------------------|

G|----------------------------------------------------|
D|----------------------------------------------------|
A|----------------------------------------------------|
D|--0---3--5--/7--0--3--5--7-0------------------------|

G|----------------------------------------------------|
D|----------------------------------------------------|
A|------------------------0--5\-----------------------|
D|--0--3--5--/7--0--3--5------------------------------|

G|----------------------------------------------------|
D|----------------------------------------------------|
A|----------------------------------------------------|
D|--0---3--5--/7--0--3--5--7-0------------------------|

G|----------------------------------------------------|
D|----------------------------------------------------|
A|----------------------------------------------------|
D|--0---3--5--/7--0--3--5--7-0------------------------|

G|----------------------------------------------------|
D|----------------------------------------------------|
A|----------------------------------------------------|
D|--0---3--5--/7--0--3--5--7-0------------------------|

G|----------------------------------------------------|
D|----------------------------------------------------|
A|------------------------0--3--3-3-3--3--3--3--3-----|
D|--0--3--5--/7--0--3--5------------------------------|

G|----------------------------------------------------|
D|----------------------------------------------------|
A|------------------------0--3--3-3-3--3--3--3--3-----|
D|--0--3--5--/7--0--3--5------------------------------|

G|----------------------------------------------------|
D|----------------------------------------------------|
A|----------------------------------------------------|
D|--0---3--5--/7--0--3--5--7-0------------------------|

G|----------------------------------------------------|
D|----------------------------------------------------|
A|-------------------------0-8/-----------------------|
D|--0---3--5--/7--0--3--5-----------------------------|



Key changes start:

G|----------------------------------------------------|
D|-----------------------3\---------------------------|
A|-------1-3-------1--3-----------1-3------1--3-------|
D|--3--6------3--6-----------3--6-----3--6------------|

G|----------------------------------------------------|
D|----------------------------------------------------|
A|----------------------------------------------------|
D|--0---3--5--/7--0--3--5--7-0------------------------|

G|----------------------------------------------------|
D|----------------------------------------------------|
A|-------------------------0-8/-----------------------|
D|--0---3--5--/7--0--3--5-----------------------------|

G|----------------------------------------------------|
D|-----------------------3\---------------------------|
A|-------1-3-------1--3-----------1-3------1--3-------|
D|--3--6------3--6-----------3--6-----3--6------------|

G|----------------------------------------------------|
D|----------------------------------------------------|
A|----------------------------------------------------|
D|--0---3--5--/7--0--3--5--7-0------------------------|

G|----------------------------------------------------|
D|----------------------------------------------------|
A|-------------------------0-8/-----------------------|
D|--0---3--5--/7--0--3--5-----------------------------|

G|----------------------------------------------------|
D|-----------------------3\---------------------------|
A|-------1-3-------1--3-----------1-3------1--3-------|
D|--3--6------3--6-----------3--6-----3--6------------|



Main riffs:

G|----------------------------------------------------|
D|----------------------------------------------------|
A|----------------------------------------------------|
D|--0---3--5--/7--0--3--5--7-0------------------------|

G|----------------------------------------------------|
D|----------------------------------------------------|
A|------------------------0--5\-----------------------|
D|--0--3--5--/7--0--3--5------------------------------|

G|----------------------------------------------------|
D|----------------------------------------------------|
A|----------------------------------------------------|
D|--0---3--5--/7--0--3--5--7-0------------------------|

G|----------------------------------------------------|
D|----------------------------------------------------|
A|------------------------0--5\-----------------------|
D|--0--3--5--/7--0--3--5------------------------------|

G|----------------------------------------------------|
D|----------------------------------------------------|
A|----------------------------------------------------|
D|--0---3--5--/7--0--3--5--7-0------------------------|

G|--------------------------------5h7\----------------|
D|--------------------------5h7h8---------------------|
A|--------------5-----5h7h8---------------------------|
D|--0--3--5--/7---7h9---------------------------------|



Outro start:

G|----------------------------------------------------|
D|----------------------------------------------------|
A|----------------------------------------------------|
D|--0---3--5--/7--0--3--5--7-0------------------------|

G|----------------------------------------------------|
D|----------------------------------------------------|
A|----------------------------------------------------|
D|--0---3--5--/7--0--3--5--7-0------------------------|

G|----------------------------------------------------|
D|----------------------------------------------------|
A|------------------------0--5\-----------------------|
D|--0--3--5--/7--0--3--5------------------------------|

G|----------------------------------------------------|
D|----------------------------------------------------|
A|------------------------0--5\-----------------------|
D|--0--3--5--/7--0--3--5------------------------------|

Fade out:

G|----------------------------------------------------|
D|----------------------------------------------------|
A|----------------------------------------------------| end.
D|--0---3--5--/7--0--3--5--7-0------------------------|

--------------------------------------------------------------------
Shaun Molthop





Comments


Popular Yoko Kanno tabs & chords
Ask Dna Chords
The Real Folk Blues 1 Chords
Call Me Call Me Tabs
Elm 1 Tabs
Lion Tabs
Rain Tabs
Take A Little Hand Tabs
Waltz For Zizi Tabs
Waltz For Zizi 1 Tabs
Wo Qui Non Coin Tabs


Song lyrics



↑ Back to top | Tablatures and chords are parodies/interpretations of the original songs. You may use it for private study, scholarship, research or language learning purposes only
© 2014 AZChords.com Contact us | Privacy policy | DMCA | Add/correct tabs | Request tabs | Top 50 tabs