» » »

Yodelice, Shadow Boxing Tabs (ver.1)

Artists:  A B C D E F G H I J K L M N O P Q R S T U V W X Y Z # 

Shadow Boxing Tabs (ver.1)

Yodelice Tabs
 Rating:
4/5 (4 votes)
Shadow Boxing lessons Tabs too difficult? Try these video lessons and learn fast
1
                Shadow Boxing (guitar and chords)

By Yodelice from the album Tree of Life

Standart tuning

Chords:

    Gm  Dm  Cm  F
e|--3---5---3---1--|
b|--3---6---4---1--|
g|--3---7---5---2--|
d|--5---7---5---3--|
a|--5---5---3---3--|
E|--3---x---x---1--|


Intro:

Long G-minor organ chord with varying vibrato rate.
Gm: Sol Sib Ré
     G  Bb  D

       8x
e|-------------|
b|-------------|
g|-------------|
d|-------------|
a|-----5-6-5---|
E|-3-6-------6-|

Verse 1:

        4x               4x                 4x              4x
e|-------------|-------------------|------------------|-------------| \
b|-------------|-------------------|------------------|-------------|  \
g|-------------|-------------------|------------------|-------------|   \ play
d|-------------|-------------------|------------------|-------------|   /  2x
a|-----5-6-5---|-------12-13-12----|------10-11-10----|-----5-6-5---|  /
E|-3-6-------6-|-10-13----------13-|-8-11----------11-|-3-6-------6-| /

       NC               NC                  NC              NC

Once upon a shooting star
I was fighting blind and somber

Sticks and stones but a scar
made of lightning, made of thunder


Chorus
        2x              2x              4x
e|-------------|------------------|-------------| \
b|-------------|------------------|-------------|  \
g|-------------|------------------|-------------|   \ play
d|-------------|------------------|-------------|   /  2x
a|---0-1-3-1-0-|------10-11-10----|-----5-6-5---|  /
E|-1-----------|-8-11----------11-|-3-6-------6-| / 

        F               Cm               Gm

Like a sun shining without a shadow
Like a swan sliding without a puddle


Verse 2:
(add guitar chords)

        4x               4x                 4x              4x
e|-------------|-------------------|------------------|-------------| \
b|-------------|-------------------|------------------|-------------|  \
g|-------------|-------------------|------------------|-------------|   \ play
d|-------------|-------------------|------------------|-------------|   /  2x
a|-----5-6-5---|-------12-13-12----|------10-11-10----|-----5-6-5---|  /
E|-3-6-------6-|-10-13----------13-|-8-11----------11-|-3-6-------6-| /

        Gm               Dm                 Cm              Gm

Cross my heart, hold my arm
I had faith in shining armors

Come rain blow winds and war
I was wearing flying colors

Chorus:

        2x
e|---------------|---------|
b|---------------|---------|
g|---------------|---------|
d|---1-0---------|---------|
a|-------3-1-0---|---------|
E|-1-----------3-|-5-6-6/8-|

         NC          NC

Like a sun shining without a shadow
Like a swan sliding without a puddle

        2x              2x              4x
e|-------------|------------------|-------------| \
b|-------------|------------------|-------------|  \
g|-------------|------------------|-------------|   \ play
d|-------------|------------------|-------------|   /  4x
a|---0-1-3-1-0-|------10-11-10----|-----5-6-5---|  /
E|-1-----------|-8-11----------11-|-3-6-------6-| / 

        F               Cm               Gm

Like a horse riding without a saddle
Like a curse rising without and idol
Like a wreck drifting without a paddle
Like a jerk hiding without a Jekyll

Outro:

       8x
e|-------------|-------------|
b|-------------|-------------|
g|-------------|-------------|
d|-------------|-------------|
a|-----5-6-5---|-------------|
E|-3-6-------6-|-3-----------|
            
Submit corrections

comments powered by Disqus
↑ Back to top | Yodelice Tabs for Shadow Boxing. Lyrics for acoustic guitar and electric guitar. 1 Tablatures and chords are parodies/interpretations of the original songs. You may use it for private study, scholarship, research or language learning purposes only