» » »

Insanity Tabs (ver.1)

Artists:  A B C D E F G H I J K L M N O P Q R S T U V W X Y Z # 

Insanity Tabs (ver.1)

Yodelice
Rating:
0/5 (0 votes)

Hard to play? Try these video lessons and learn fast.
                Yodelice- Insanity


Verset/Chorus:

------7-x- 7-------8--x-8----------5-x-5----------3-x-3----|
------8-x--8-------8--x-8----------5-x-5----------5-x-5----|
------9-x--9-------9--x-9----------6-x-6----------4-x-4----|
--------x-------------x--------------x--------------x------|
--------x-------------x--------------x--------------x------|
-0------x------0------x-------0------x------0-------x------|


-----3-x-3---------3-x-3-------2-x-2-------2-x-2----|
-----5-x-5---------5-x-5-------4-x-4-------4-x-4----|
-----5-x-5---------5-x-5-------4-x-4-------4-x-4----|
-------x-------------x-----------x-----------x------|
-------x-------------x-----------x-----------x------|
-0-----x--------0----x-----0-----x--------0--x------|



Bridge:

--2-x-2-x-2-x-2-x----3-x-3-x-3-x-3-x-----|
--4-x-4-x-4-x-4-x----4-x-4-x-4-x-4-x-----|
--2-x-2-x-2-x-2-x----5-x-5-x-5-x-5-x-----|
----x---x---x---x------x---x---x---x-----|
----x---x---x---x------x---x---x---x-----|
----x---x---x---x------x---x---x---x-----|

«The sun had my respect...»

--3-x-3-x-3-x-3-x----2-x-2-x-2-x-2-x--------|
--5-x-5-x-5-x-5-x----4-x-4-x-4-x-4-x--------|
--5-x-5-x-5-x-5-x----4-x-4-x-4-x-4-x--------|
----x---x---x---x------x---x---x---x--------|
----x---x---x---x------x---x---x---x--------|
----x---x---x---x------x---x---x---x--------|
            
Hard to play? Try these video lessons and learn fast. | Correct




comments powered by Disqus
↑ Back to top | Tablatures and chords are parodies/interpretations of the original songs. You may use it for private study, scholarship, research or language learning purposes only