>
 >
Five Thousand Nights

Five Thousand Nights Guitar Tabs

Yodelice - Five Thousand Nights chords, tabs, tablatures, lyrics

Guitar lessons | Add/correct | Request | Top 50 tabs Artists:  A B C D E F G H I J K L M N O P Q R S T U V W X Y Z 0-9

Five Thousand Nights Guitar Tabs – Yodelice

CD, Sheet music, Poster

Do you like Five Thousand Nights? Share with your friends now
Tabs
SubTitle: Acoustic
Words: Maxim Nucci
Music: Maxim Nucci
Tempo = 120

    Intro x2
D#||------------|----------------------|-------------|-------------|
A#||----1--1----|--------1-------------|-----1--1----|-----1--1----|
F#||----2--2----|--------2-------------|-----0--0----|-----0--0----|
C#||----2--2----|--------2-------------|-----2--2----|-----2--2----|
G#||-0----------|--------------0--2----|--3----------|-------------|
D#||------------|--0-------------------|-------------|--3----------|

                                                         Verse x3
-------------|-------------|-------------|------------|||------------|
-----0--0----|-----0--0----|-----1--1----|-----1--1---|||----1--1----|
-----0--0----|-----0--0----|-----2--2----|-----2--2---|||----2--2----|
-----2--2----|-----2--2----|-----2--2----|-----2--2---|||----2--2----|
-------------|--2----------|--0----------|------------|||-0----------|
--0----------|-------------|-------------|--0---------|||------------|


-------------|-------------|-------------|-------------|-------------|
-----1--1----|-----1--1----|-----1--1----|-----0--0----|-----0--0----|
-----2--2----|-----0--0----|-----0--0----|-----0--0----|-----0--0----|
-----2--2----|-----2--2----|-----2--2----|-----2--2----|-----2--2----|
-------------|--3----------|-------------|-------------|--2----------|
--0----------|-------------|--3----------|--0----------|-------------|

[1,2]                       [3]
-------------|------------||-------------|-------------|-------------|
-----1--1----|-----1--1---||-----1--1----|-----1--1----|-----1--1----|
-----2--2----|-----2--2---||-----2--2----|-----2--2----|-----2--2----|
-----2--2----|-----2--2---||-----3--3----|-----3--3----|--3----------|
--0----------|------------||-------------|--3----------|-------------|
-------------|--0---------||--1----------|-------------|-------------|

               Chorus x2
-------------||----1--1----|-----1--1----|-------------|-------------|
-----1--1----||----3--3----|-----3--3----|-----1--1----|-----1--1----|
-----2--2----||----2--2----|-----2--2----|-----0--0----|-----0--0----|
-----3--3----||-0----------|-------------|-----2--2----|-----2--2----|
--3----------||------------|--0----------|--3----------|-------------|
-------------||------------|-------------|-------------|--3----------|

                            [1]                         [2]
-------------|-------------|-------------|------------||-------------|
-----0--0----|-----0--0----|-----1--1----|-----1--1---||-----1-------|
-----0--0----|-----0--0----|-----2--2----|-----2--2---||-----2--0----|
-----2--2----|-----2--2----|-----2--2----|-----2--2---||-----2--0----|
-------------|--2----------|--0----------|------------||--0----------|
--0----------|-------------|-------------|--0---------||--------3----|

                                          Bridge
-------------|-------------|-------------|-------------|----------------------|
-----1-------|-----1-------|-------------|-----1--1----|--------1-------------|
-----2--0----|-----2--0----|--2----------|-----2--2----|--------2-------------|
-----2--0----|-----2--0----|--2----------|-----2--2----|--------2-------------|
--0----------|--0----------|--0----------|--0----------|--------------0--2----|
--------3----|--------3----|-------------|-------------|--0-------------------|


----------------------|-------------|-------------|-------------|-------------|
--------1-----1-------|-----1--1----|-----0--0----|-----0--0----|-----1--1----|
--------0-----0-------|-----0--0----|-----0--0----|-----0--0----|-----2--2----|
--------0h-2--0h-2----|-----2--2----|-----2--2----|-----2--2----|-----2--2----|
--3-------------------|-------------|-------------|--2----------|--0----------|
----------------------|--3----------|--0----------|-------------|-------------|


-------------|-------------|----------------------|-------------|-------------|
-----1--1----|-----1--1----|--------1-------------|-----1--1----|-----1--1----|
-----2--2----|-----2--2----|--------2-------------|-----0--0----|-----0--0----|
-----2--2----|-----2--2----|--------2-------------|-----2--2----|-----2--2----|
-------------|--0----------|--------------0--2----|--3----------|-------------|
--0----------|-------------|--0-------------------|-------------|--3----------|

                                                         Verse x2
-------------|-------------|-------------|-------------||------------|
-----0--0----|-----0--0----|-----1--1----|-----1--1----||----1--1----|
-----0--0----|-----0--0----|-----2--2----|-----2--2----||----2--2----|
-----2--2----|-----2--2----|-----2--2----|-----2--2----||----2--2----|
-------------|--2----------|--0----------|-------------||-0----------|
--0----------|-------------|-------------|--0----------||------------|


-------------|-------------|-------------|-------------|-------------|
-----1--1----|-----1--1----|-----1--1----|-----0--0----|-----0--0----|
-----2--2----|-----0--0----|-----0--0----|-----0--0----|-----0--0----|
-----2--2----|-----2--2----|-----2--2----|-----2--2----|-----2--2----|
-------------|--3----------|-------------|-------------|--2----------|
--0----------|-------------|--3----------|--0----------|-------------|

[1]                         [2]
-------------|------------||-------------|-------------|-------------|
-----1--1----|-----1--1---||-----1--1----|-----1--1----|-----1--1----|
-----2--2----|-----2--2---||-----2--2----|-----2--2----|-----2--2----|
-----2--2----|-----2--2---||-----3--3----|-----3--3----|--3----------|
--0----------|------------||-------------|--3----------|-------------|
-------------|--0---------||--1----------|-------------|-------------|

               Chorus x3
-------------||----1--1----|-----1--1----|-------------|-------------|
-----1--1----||----3--3----|-----3--3----|-----1--1----|-----1--1----|
-----2--2----||----2--2----|-----2--2----|-----0--0----|-----0--0----|
-----3--3----||-0----------|-------------|-----2--2----|-----2--2----|
--3----------||------------|--0----------|--3----------|-------------|
-------------||------------|-------------|-------------|--3----------|

                            [1,2]                       [3]
-------------|-------------|-------------|------------||-------------|
-----0--0----|-----0--0----|-----1--1----|-----1--1---||-----1-------|
-----0--0----|-----0--0----|-----2--2----|-----2--2---||-----2--0----|
-----2--2----|-----2--2----|-----2--2----|-----2--2---||-----2--0----|
-------------|--2----------|--0----------|------------||--0----------|
--0----------|-------------|-------------|--0---------||--------3----|


-------------|-------------|-------||
-----1-------|-----1-------|-------||
-----2--0----|-----2--0----|--2----||
-----2--0----|-----2--0----|--2----||
--0----------|--0----------|--0----||
--------3----|--------3----|-------||





Comments


Popular Yodelice tabs & chords
Insanity 1 Chords
Sunday With A Flu Chords
Sunday With A Flu 1 Chords
Sunday With A Flu 2 Chords
Sunday With A Flu 3 Chords
Another Second Tabs
Fade Away Tabs
Lady In Black Tabs
Free Ukulele
Sunday With A Flu Ukulele


Song lyrics



↑ Back to top | Tablatures and chords are parodies/interpretations of the original songs. You may use it for private study, scholarship, research or language learning purposes only
© 2014 AZChords.com Contact us | Privacy policy | DMCA | Add/correct tabs | Request tabs | Top 50 tabs