» » »

Yo, Enkelille Chords (ver.1)

Artists:  A B C D E F G H I J K L M N O P Q R S T U V W X Y Z # 

Enkelille Chords (ver.1)

Yo Tabs
Rating:
0/5 (0 votes)
Enkelille lessons Tabs too difficult? Try these video lessons and learn fast
                --------------------------------------------------------------
--------------------------------------------------------------
Tuning: Standard


Intro: D A Bm A D 


D            A         Bm    A
  On kaikki pois lahteneet
        D         Bm         A
  jattaneet yohon yksin kulkijan
     D           A
  On kaikki lahteneet
       
       Bm           A
  Enaa yksin matkaa teet
      Bm      A           D    A
  kun kaikki pois on lahteneet


D         A           Bm    A
  Joo, ne rakasti sua niin
         D            Bm            A
  Lapsen kasvot meikilla vain peitettiin
         D          A
  Meikki rapistunut on
          Bm          A
  ja vain kylman kohtalon
      Bm         A            D     D/C#
  sai lapsi jota rakastettiin niin


     Bm                   A      G
  Ja kaiken taman jalkeen han on valmis kuolemaan
  Em                      A
  Itkien han yossä nuolee haavojaan
  Bm               A    G
  Jaljellä on enaa arpi vanhan ystavan
  Em        G          Bm    A
  vaikka odotitkin enemman


D        A           Bm   A
  Vuodet kuluneet jo on
       D            Bm         A
  joko paattynyt on matkas loputon?
        D                  A
  Veiko kotiin viimein sun ties
      Bm               A
  vai vielako matkalla oot?
     Bm      A                D
  Oi enkeli, vielako matkalla oot?



Solo: (4x)
e|--7------------|---------------|---------------|---------------|
B|-----10--8--7--|----------7--8-|--10--8--7-----|---------------|
G|---------------|-9~------------|------------9--|-7~------------|
D|---------------|---------------|---------------|---------------|
A|---------------|---------------|---------------|---------------|
E|---------------|---------------|---------------|---------------|

e|---------------|----------------|-------------|------------------|
B|---------------|----------------|-7--8--7-----|--------------7-8-|
G|--7-7-6-6-7-7--|-9-9--7-7--9-9--|----------9--|-7-----6--7-9-----|
D|---------------|----------------|-------------|------------------|
A|---------------|----------------|-------------|------------------|
E|---------------|----------------|-------------|------------------|
            
Submit corrections

comments powered by Disqus
↑ Back to top | Yo Chords for Enkelille. Lyrics for acoustic guitar and electric guitar. Tablatures and chords are parodies/interpretations of the original songs. You may use it for private study, scholarship, research or language learning purposes only