>
 >
Sorrow 1

Sorrow 1 Guitar Tabs

Yngwie Malmsteen - Sorrow 1 chords, tabs, tablatures, lyrics

Guitar lessons | Add/correct | Request | Top 50 tabs Artists:  A B C D E F G H I J K L M N O P Q R S T U V W X Y Z 0-9

Sorrow 1 Guitar Tabs – Yngwie Malmsteen

CD, Sheet music, Poster

Do you like Sorrow 1? Share with your friends now
TabsTabs v2
Yngwie Malmsteen
Sorrow

Eb||----15------15----15------15--|----15------15----15------15--|
Bb||------------------------------|--------13------------13------|
Gb||--------15------------15------|------------------------------|
Db||------------------------------|------------------------------|
Ab||------------------------------|------------------------------|
Eb||------------------------------|------------------------------|


                                                              
----15------15----15------15--|------------------------------|
------------------------------|----16------16----16------16--|
--------15------------15------|--------14------------14------|
------------------------------|------------------------------|
------------------------------|------------------------------|
------------------------------|------------------------------|


                                                              
------------------------------|------------------------------|
----15------15----15------15--|----13------13----13------13--|
--------15------------15------|--------14------------14------|
------------------------------|------------------------------|
------------------------------|------------------------------|
------------------------------|------------------------------|


                                                                     
------------------------------|------------------|------------------|
----11------11----11------11--|------------------|------------------|
--------12------------12------|------------------|------------------|
------------------------------|------------------|------------------|
------------------------------|------------------|------------------|
------------------------------|------------------|------------------|


                                                              
----15------15----15------15--|----15------15----15------15--|
------------------------------|--------13------------13------|
--------15------------15------|------------------------------|
------------------------------|------------------------------|
------------------------------|------------------------------|
------------------------------|------------------------------|


                                                              
----15------15----15------15--|------------------------------|
------------------------------|----16------16----16------16--|
--------15------------15------|--------14------------14------|
------------------------------|------------------------------|
------------------------------|------------------------------|
------------------------------|------------------------------|


                                                              
------------------------------|------------------------------|
----15------15----15------15--|----13------13----13------13--|
--------15------------15------|--------14------------14------|
------------------------------|------------------------------|
------------------------------|------------------------------|
------------------------------|------------------------------|


                                                                     
------------------------------|------------------|------------------|
----11------11----11------11--|------------------|------------------|
--------12------------12------|------------------|------------------|
------------------------------|------------------|------------------|
------------------------------|------------------|------------------|
------------------------------|------------------|------------------|

 


  Final:  
(fondo1)
                                                            
|----------8--6--5--3--2-----|
|--10--11-----------------4--|
|----------------------------|
|----------------------------|
|----------------------------|
|----------------------------|


                                                                          
--------------------------|--------5----8----10----|--8------------------|
--3--1--------------------|-----3------------------|-------10------------|
--------3--2--0-----0--2--|--3---------------------|---------------------|
-----------------4--------|------------------------|---------------------|
--------------------------|------------------------|---------------------|
--------------------------|------------------------|---------------------|


                                                          
------------------|------------------|------------------||
------------------|------------------|------------------||
------------------|------------------|------------------||
------------------|------------------|------------------||
------------------|------------------|------------------||
------------------|------------------|------------------||



 


Guitarra 1: Melodia
                                                               
Eb||------------------|--------------------|-------------------|
Bb||------------------|----------------6-5-|---6---------------|
Gb||------------------|--------------------|-------------------|
Db||------------------|--------------------|-------------------|
Ab||------------------|--------------------|-------------------|
Eb||------------------|--------------------|-------------------|


                                                                
--5-8------------6-5-|--6--------------5-3-|--5----------------|
---------------------|---------------------|-------------------|
---------------------|---------------------|-------------------|
---------------------|---------------------|-------------------|
---------------------|---------------------|-------------------|
---------------------|---------------------|-------------------|


                                                                   
------------------|----6----------6--------|----5-----3-----------|
------------------|----------8----------8--|-------3-----3--------|
------------------|-------7----------7-----|----------------------|
------------------|------------------------|----------------------|
------------------|------------------------|----------------------|
------------------|------------------------|----------------------|


                                                                         
-----------------------10-15-10----|------------------------------------|
--------------------11---------16--|-----15-15-----13-------------------|
-----------------12----------------|--17--------15----15--15-14---12----|
---------------12------------------|------------------------------------|
------------10---------------------|------------------------------------|
-----------------------------------|------------------------------------|


                                                              
---10-----10--10--------------------------|---------------------|
------------------13-11-10----------10----|---------------------|
------12-------------------12-11-12----11-|-12-7-8---7--5-------|
------------------------------------------|-------------10------|
------------------------------------------|----------------10---|
------------------------------------------|---------------------|


                                                                          
--------------------------------------------------|---------------10-----------------------|
-------------------------------------------11-----|13-13--10-10-11----8-10-11----10-11-----|
------------------------------12-11-14-12----12---|----------------------------12-------12-|
------------10----12-10-13-12---------------------|----------------------------------------|
--10--13-12----13---------------------------------|----------------------------------------|
--------------------------------------------------|----------------------------------------|


                                                                
----------------------------|----------------------------------|
--------10------------------|------11--------------11------11--|
--11-12----11-12------------|--------------12----------12------|
----------------------------|----------12----------------------|
----------------------------|----------------------------------|
----------------------------|--10--------------10--------------|


                                                                          
----------------------------|-------------------|---------------10-13--|
------10-----8-----10-8-10--|--7----------------|-----10-11-13---------|
----------7-----7-----------|-------------------|--12------------------|
----------------------------|---------------12*-|----------------------|
----------------------------|-------------------|----------------------|
---10-----------------------|-------------------|----------------------|


                                                                             
--11----10--------------|-------------------11--|--10-----------------|
--------------13---11---|--9--------9-10-13-----|-----13-11-10-11-----|
------------------------|------9-12-------------|-----------------12--|
------------------------|-----------------------|---------------------|
------------------------|-----------------------|---------------------|
------------------------|-----------------------|---------------------|


                                                                    
---------------|--10------15-----|--------------------|
--10-----11-13-|--------------10-|--12----------------|
---------------|-----------------|--------------------|
---------------|-----------------|--------------------|
---------------|-----------------|--------------------|
---------------|-----------------|--------------------|


                                                                              
------------------------|--------------------------|----------8--6--5--5--4--|
------------------------|--------------------------|-------------------------|
------15----12----------|--------------------------|-------------------------|
------------------14----|--11----------------------|-------------------------|
------------------------|--------13----10----------|-------------------------|
------------------------|--------------------12----|--10---------------------|


                                                                            
--5-----------8--6----|------------------10-8-6-5-3-|--2----5--------------|
-------3--------------|------8----------------------|----------4--3--------|
----------------------|----7------------------------|----------------------|
----------------------|--7--------------------------|----------------------|
----------------------|-----------------------------|----------------------|
----------------------|-----------------------------|----------------------|


                                                                
-------------------10-14-|--15--------------------------------|
----------------11-------|------15------13--11-13---13-13-13--|
-------------12----------|----------15------------------------|
-------------------------|------------------------------------|
-------------------------|------------------------------------|
-------------------------|------------------------------------|


                                                                           
--10--10-10------------------------------|--------------------------------|
---------------10-11-11------------------|--------------------------------|
-------------------------11-12-12--------|--------------------------------|
-----------------------------------12-13-|--13-----10-10----------------8-|
-----------------------------------------|------13-----------------8-10---|
-----------------------------------------|----------------------11--------|


                                                                         
-------------------10----------------------------|-------------------------------|
----------10-11-13----13-11-13-10-11----10-11----|--8-----------------------8-10-|
----11-12-----------------------------12---------|----7---5---------------7------|
--12------------------------------------------12-|------8---7-8-5-4-5-7-8--------|
-------------------------------------------------|-------------------------------|
-------------------------------------------------|-------------------------------|


                                                                         
----------------------------------------------|-------------------|------------------|
---13-11-11-13-10-11----10--------------------|-------------------|------------------|
---------------------12--9-11-12--------------|--12---------------|------------------|
--------------------------------12-13-10-8-10-|-------------------|------------------|
----------------------------------------------|-------------------|------------------|
----------------------------------------------|-------------------|------------------|


                                                                           
---------------13--10---------------|----------13--11-10------15-13-11-10-------|
---------10-11---------13--13--10---|--------------------13-11------------13-11-|
-----12---------------------------9-|-------------------------------------------|
--12--------------------------------|-------------------------------------------|
------------------------------------|-------------------------------------------|
------------------------------------|-------------------------------------------|


                                                                    
--5-6-8---------------------|------------------|------------------||
--10-11-13------------------|------------------|------------------||
-----------10-12------------|------------------|------------------||
-----------------9----------|------------------|------------------||
----------------------10----|------------------|------------------||
-------------------12-------|------------------|------------------||





Comments


Popular Yngwie Malmsteen tabs & chords
Black Star 2 Bass Tabs
Arpeggios From Hell 2 Tabs
Bedroom Eyes Tabs
Beethovens 5th Symphony Tabs
Cry No More 1 Tabs
Forever Is A Long Time Tabs
Sarabande Tabs
The Seventh Sign Tabs
The Seventh Sign 1 Tabs
Trilogy Suite Op 5 1 Tabs


Song lyrics



↑ Back to top | Tablatures and chords are parodies/interpretations of the original songs. You may use it for private study, scholarship, research or language learning purposes only
© 2014 AZChords.com Contact us | Privacy policy | DMCA | Add/correct tabs | Request tabs | Top 50 tabs