» » »

Somewhere Over The Rainbow Tabs (ver.1)

Artists:  A B C D E F G H I J K L M N O P Q R S T U V W X Y Z # 

Somewhere Over The Rainbow Tabs (ver.1)

Yngwie Malmsteen
Rating:
0/5 (0 votes)

Hard to play? Try these video lessons and learn fast.
                (Intro)
e|-------------------------------------------------------------------------|
B|-----15/17-17/19-19/16-------16-17----------17-------------7/10-9--------|
G|-----------------------16-18----------15/18----16~-7h9p7-6--------9-11---|
D|-/14-------------------------------14------------------------------------|
A|-------------------------------------------------------------------------|
E|-------------------------------------------------------------------------|

e|-------------------------------------------------------------------------|
B|-------------------------------------------------------------------------|
G|-11/13-13/14-14/11-8-9-11-+13-9h11p9-9-8------15/17-17/19-19/16-------16-|
D|-----------------------------------------9/14-------------------16-18----|
A|-------------------------------------------------------------------------|
E|-------------------------------------------------------------------------|

e|-------------------------------------------------------------------------|
B|-17-------------7/10-9---------------------------------------------------|
G|----16~-7h9p7-6--------9-11-11/13-13/14-14/11-8-9-11-+13-9h11p9-9-8------|
D|--------------------------------------------------------------------9/14-|
A|-------------------------------------------------------------------------|
E|-------------------------------------------------------------------------|

e|-7p4-7p4-7p4-7p4-7p5-7p5-7p5-7p5-7-9-11-7p4-7p4-7p4-7p4-9p6-9p6-9p6-9p6--|
B|-------------------------------------------------------------------------|
G|-------------------------------------------------------------------------|
D|-------------------------------------------------------------------------|
A|-------------------------------------------------------------------------|
E|-------------------------------------------------------------------------|

e|-9-11-13-----------------------------------------------------------------|
B|-------------15/17-17/19-19/16-------16-17----------17-------------7/10-9|
G|-------------------------------16-18----------15/18----16~-7h9p7-6-------|
D|---------/14-------------------------------14----------------------------|
A|-------------------------------------------------------------------------|
E|-------------------------------------------------------------------------|

e|-------------------------------------------------------------------------|
B|-------------------------------------------------------------------------|
G|-9-11-11/13-13/14-14/11-8-9-11-+13-9h11p9-9------------------------------|
D|-------------------------------------------------------------------------|
A|-------------------------------------------------------------------------|
E|-------------------------------------------------------------------------|

+=pitched harmonic
/=slide
p=pull-off
h=hammer-on
~=vibrato(wobble)
            
Hard to play? Try these video lessons and learn fast. | Correct




comments powered by Disqus
↑ Back to top | Tablatures and chords are parodies/interpretations of the original songs. You may use it for private study, scholarship, research or language learning purposes only