>
 >
See You In Hell

See You In Hell Guitar Tabs

Yngwie Malmsteen - See You In Hell chords, tabs, tablatures, lyrics

Guitar lessons | Add/correct | Request | Top 50 tabs Artists:  A B C D E F G H I J K L M N O P Q R S T U V W X Y Z 0-9

See You In Hell Guitar Tabs – Yngwie Malmsteen

CD, Sheet music, Poster

Do you like See You In Hell? Share with your friends now
Tabs
Yngwie Malmsteen

tune down 1/2 step


  w/reverse echo
|----------0dive-w/bar--------------------------------------------------|
|-----------------------------------------------------------------------|
|-----------------------------------------------------------------------|
|-----------------------------------------------------------------------|
|---/19-----------------------------------------------------------------|
|-----------------------------------------------------------------------|



|-----------------------------|------------------------------------|-----
|-----------------------------|------------------------------------|-----
|-----------------------------|------------------------------------|-----
|--2--------------------------|------------------------------------|-----
|--0--0--7p0--7--0--0--0--8*--|-0--0--0--7p0--7--0--0--0--5--7--8--|-0---
|-----------------------------|------------------------------------|-----



----------------------------|---------------------------------|----------
----------------------------|---------------------------------|----------
----------------------------|---------------------------------|----------
----------------------------|---------------------------------|----------
-0--0--7p0--7--0--0--0--8~--|-5--7--5-------------------------|-0--0--7p0
----------------------------|----------8--7--5--8\7--4--5--7--|----------



-----------------|------------------------------------|------------------
-----------------|------------------------------------|------------------
-----------------|------------------------------------|------------------
-----------------|------------------------------------|------------------
--7--0--0--0--8~-|-0--0--0--7p0--7--0--0--0--5--7--8--|-0--0--0--7p0--7--
-----------------|------------------------------------|------------------



---------------|--------------------------------------|------------------
---------------|--------------------------------------|------------------
---------------|--------------------------------------|------------------
---------------|--------------------------------------|------------------
--0--0--0--8~--|--5--8--7--5--------------------------|-0--0--7p0--7--0--
---------------|--------------8--7--5--8--7--4--5--7--|------------------



------------|------------------------------------|-----------------------
------------|------------------------------------|-----------------------
------------|------------------------------------|-----------------------
------------|------------------------------------|-----------------------
-0--0--8~---|-0--0--0--7p0--7--0--0--0--5--7--8--|-0--0--0--7p0--7--0--0-
------------|------------------------------------|-----------------------



---------|-------------------------------------|--------------------------|
---------|-------------------------------------|--------------------------|
---------|-------------------------------------|--------------------------|
---------|-------------------------------------|--------------------------|
--0--8~--|-5--8--7--5--------------------------|-0--0--7p0--7--0--0--0--8~|
---------|-------------8--7--5--8--7--4--5--7--|--------------------------|



|------------------------------------|-----------------------------------|
|------------------------------------|-----------------------------------|
|------------------------------------|-----------------------------------|
|------------------------------------|-----------------------------------|
|-0--0--0--7p0--7--0--0--0--5--7--8--|-0--0--0--7p0--7--0--0--0--8~------|
|------------------------------------|-----------------------------------|


                                      Can't bow to the rule
|---------------------------------|-----------------|-------------------|
|---------------------------------|-----------------|-------------------|
|---------------------------------|---9-~-----------|-------------------|
|----------------------------7~---|---7-~---w/bar---|-------------------|
|-5--8--7--5-----------------8~---|---0-~-----------|-0--0--0--0--0--0--|
|-------------8--7--5--8--7-------|-----------------|-------------------|


  'cause I'm nobody's fool.      No puppet on 
|----------------|------------------------|-----------------0-----------|
|---3~-----------|------------------------|-----------------------------|
|---4~-----------|------------------------|----2------------------------|
|---5~-----------|------------------0-----|----0------------------------|
|----------------|------------------0-----|----0------------------------|
|----------------|------------------------|-----------------------------|


   a string,  when what counts  is to win
|-----------------|----------------------------|--0---------------------|
|--3--------------|---0------------------------|--0---------------------|
|-----2-------2---|---1------------------------|------------------------|
|---------0-------|---2------------------------|------------------------|
|-----------------|----------------------------|------------------------|
|-----------------|-------0--0--0--0--0--0--0--|-------4--4--4--4h5h7---|


  Sometimes I'm rude  acting in my mood
|----------------|-------------------|----------------------------------|
|----------------|---1---0-----------|---3------------------------------|
|----------------|-----------2-------|---4------------------------------|
|--2~-w/bar------|---------------2---|---5------------------------------|
|--0~------------|-------------------|---0----0--0--0--0--0--0--0--0----|
|----------------|-------------------|----------------------------------|


   I'm trying to be straight 'cause I don't
|-------------------------------------------------|------0--------------|
|-------------------------------------------------|-3-------3-----------|
|-------------------------------------------------|-2----------2--------|
|-------------------------------------------------|-4-------------------|
|-0--0--0--0--0--0--0--0--0--0--0--0--0--0--0--0--|-0-------------------|
|-------------------------------------------------|---------------------|


                     want to be late.
|-----------------|---------------------|--0------------------|---------|
|---3-------------|-----------------0---|--0------------------|---------|
|--------2~~~-----|---------------------|--------x-------x\---|---------|
|-----------------|---------------------|--------xp.s----x\---|--3------|
|-----------------|--2-------0----------|---------------------|--3------|
|-----------------|--0------------------|---------------------|--1------|


              There's nothing you can say to make me
|--------------|------------------------------------------|--------------
|--------------|--0---------------------------------------|--------------
|--0~----------|--1---------------------------------------|--------------
|--0~----------|--2---------------------------------------|--------------
|--------------|------------------------------------------|--------------
|--------------|------0--0--0--0--0--0--0--0--0--0--0--0--|-4--4--4--4--4


                          feel worse than I do.
                  Bkgrd:  How are you?
------------------------|--------------------------|---------------------
------------------------|--------------------------|---------------------
------------------------|----------2------------2--|---------------------
------------------------|----------2------------2--|---------------------
------------------------|-0--0--0--0---------------|-3--------3--------2-
-4--4--4--4--4--4--4----|--------------3--3--3--3--|-1--1--1--1--1--1--0-


                               freedom, keep me locked in your cell
---------------|----------------|-------------|-1-----------------------|
---------------|--3~------------|--1~---------|-1--------1--------------|
---------------|--2~--w/bar-----|--0~---------|-2--------0--------------|
---------------|--0~------------|--2~---------|-3-----------------------|
---------------|--0~------------|-------------|-3-----------------------|
--0--0--0--0---|----------------|-------------|-------------------------|

                         Sad, how we waste our energy when all
  hold============
|--3-------------------|-----------------------------------------|-------
|--3-------------3-----|--0--------------------------------------|-------
|--4-------------4-----|--1--------------------------------------|-------
|--5-------------5-----|--2--------------------------------------|-------
|---------5------------|-----------------------------------------|-------
|----------------------|-----0--0--0--0--0--0--0--0--0--0--0--0--|-4--4--


our days are few   
 
(Makes me blue)

-------------------------------|----------------------------------------|
-------------------------------|----------------------------------------|
-------------------------------|----------------------------------------|
-------------------------------|----------------------------------------|
-------------------------------|----------------------------------------|
-4--4--4--4--4--4--4--4--4--4--|-5--5--5--5--5--5--3--3--3--3--3--3-----|


                                    We're two of a kind, me and you.
|-------------------------------------|------------------------|---------
|-------------------------------------|--3---------------------|---------
|-------------------------------------|--2---------------------|-5-------
|-------------------------------------|--0---------------------|-5-------
|-------------------------------------|------5--5--5--5--5--5--|-7--7--7-
|-1--1--1--1--1--1--0--0--0--0--0--0--|------------------------|---------


                                    I guess that I'll see you in hell.
--------------|--------------------|--------------------|----------------
--------------|--------------------|--------------------|----------------
--------------|---10-dive-w/bar----|--------------------|----------------
--------------|---10---------------|-----------------6--|----------------
--7--7--7--7--|----8---------------|--------5--8--7-----|-0--0--7p0--7--0
--------------|--------------------|--4--7--------------|----------------



--------------|---------------------------------|------------------------
--------------|---------------------------------|------------------------
--------------|---------------------------------|------------------------
--------------|---------------------------------|------------------------
--0--0--0~----|-0--0--7p0--7--0--0--0--5--7--8--|-0--0--7p0--7--0--0--0--
--------------|---------------------------------|------------------------



-----------|-------------------------------------|-----------------------
-----------|-------------------------------------|-----------------------
-----------|-------------------------------------|-----------------------
-----------|-------------------------------------|-----------------------
--5--7--8--|-5--8--7--5--------------------------|-0--0--7p0--7--0--0--0-
-----------|-------------8--7--5--8--7--4--5--7--|-----------------------



--------|---------------------------------|------------------------------|
--------|---------------------------------|------------------------------|
--------|---------------------------------|------------------------------|
--------|---------------------------------|------------------------------|
--8~----|-0--0--7p0--7--0--0--0--5--7--8--|-0--0--7p0--7--0--0--0--5--7-8|
--------|---------------------------------|------------------------------|


                                        Who is my friend?
|-------------------------------------|-------------|--0----------------|
|-------------------------------------|-------------|------0------------|
|-------------------------------------|-------------|----------2--------|
|-------------------------------------|--2~-w/bar---|-------------------|
|-5--8--7--5--------------------------|--0~---------|-------------------|
|-------------8--7--5--8--7--4--5--7--|-------------|-------------------|


       Who will remain?                  Seems like I
|------------|-----------------|----1-------------0----------------------|
|--3---------|-----------------|----3------------------------------------|
|--4---------|-----x\----------|----2------------------------------------|
|--5---------|-----x\p.s.------|----0------------------------------------|
|--0---------|-----------------|-----------------------------------------|
|------------|-----------------|-----------------------------------------|


  always stand alone in the end
|-------0---------|-------------------------|---------------------------|
|--3---------2----|--0----------------------|---------------------------|
|--2--------------|--1----------------------|--4---------------4--------|
|-----------------|--2----------------------|--2------2--------2--------|
|-----------------|-------------------------|---------2--------2--------|
|-----------------|-------0--0--0--0--0--0--|--4------------------------|


   Nobody  lasts  'til   the end
                         There's nothing you can
|--------------------------------|--------------------------------------|
|--------------------------------|--------------------------------------|
|--------------------------------|--------------------------------------|
|--3-----------------------------|-5------------------------------------|
|--3-----------------------------|-5------------------------------------|
|--1--1--1--1--1--1--1--1--1--1--|-3--3--3--3--3--3--3--3--3--3---------|


Chorus
                        do to make me feel worse than I do
|--------------------|-----------------|---------------------------------|
|--------------------|-----------------|---------------------------------|
|--------------------|-----------------|---------------------------------|
|--2-----------------|-----------------|---------------------------------|
|--2-----------------|-----------------|---------------------------------|
|--0-----0-----7\----|--4~----4--4--4--|-5--5--5--5--5--5--3--3--3--3--3-|


                                       You can't buy my freedom
  Bkgd:  How are you?
|-------------------------------------|-------------------------|--------
|-------------------------------------|---3---------------------|--------
|-------------------------------------|---2---------------------|--------
|-------------------------------------|---0---------------------|--------
|-------------------------------------|---0---5--5--5--5--5--5--|-7--7--7
|-1--1--1--1--1--1--0--0--0--0--0--0--|-------------------------|--------


keep me locked in your cell.
-----------|----------------------|--------------------------------------|
-----------|----------------------|--------------------------------------|
---5~------|--------------5~------|---10~--------------------------------|
---5~------|--------------5~------|---10~-------x\p.s.-------------------|
-----------|---7--7--7------------|----8~--------------------------------|
-----------|----------------------|--------------------------------------|


    Sad, how we waste our energy when
|------------------------|------------------------|----------------------|
|--------------------3---|------------------------|----------------------|
|---12-----------0---0---|------------------------|----------------------|
|---12-----------0-------|--2---------------------|----------------------|
|---10-------------------|--2---------------------|----------------------|
|--------10\--3--3-------|--0---0--0--0--0--0--0--|-4-4-4-4-4-4-4-4-4-4--|


  all our days are few.                  We're two of a
                         Makes me blue
|---------------------------------|-------------------------|------------
|---------------------------------|-------------------------|-3----------
|---------------------------------|-------------------------|-2----------
|---------------------------------|-------------------------|-0----------
|---------------------------------|-------------------------|-0--5-5-5-5-
|-5-5-5-5-5-5-5-5-3-3-3-3-3-3-3-3-|-1-1-1-1-1-1-0-0-0-0-0-0-|------------


kind, me and you                       I guess that I'll see you in
------|------------|-------------------|---------------------------------|
------|------------|-------------------|---------------------------------|
------|--5----5----|-------------------|---------------------------------|
------|--5----5----|-------------------|-----------------6---------------|
-5-5--|--7---------|---8~--------8~----|--------5--8--7------------------|
------|------------|-------------------|--4--7---------------------------|


  Hell
|----------------------------------|-------------------------------------|
|----------------------------------|-------------------------------------|
|----------------------------------|-------------------------------------|
|----------------------------------|----------10--9--7--6----------------|
|-------------------------8--5--7--|-8--7--5---------------8--7--5-------|
|-5--5--8--7--8--8--7--5-----------|--------------------------------8--7-|



|----------------------------------|-------------------------------------|
|----------------------------------|-------------------------------------|
|----------------------------------|-------------------------------------|
|----------------------------------|-------------------------------------|
|-------------------------8--5--7--|-8--7--5--------------5--7--5--------|
|-5--5--8--7--8--8--7--5-----------|----------8--7--5--8-----------8--7--|



|----------------------------------|------------------------------------|
|----------------------------------|------------------------------------|
|----------------------------------|------------------------------------|
|----------------------------------|------------------------------------|
|-------------------------8--5--7--|-8--7--5--------------5--7--5-------|
|-5--5--8--7--8--8--7--5-----------|----------8--7--5--8-----------8--7-|



|-------------------------------|
|-------------------------------|
|-------------------------------|
|--------------------6----------|
|-----------6--7--9-----9p7--6--|
|-5~--8--9----------------------|



Guitar solo

|-12-9-10-12/14-11-12-14/16-12-14-16-17p14--16-17\21-19-17-|-16-19-17----
|----------------------------------------------------------|----------19-
|----------------------------------------------------------|-------------
|----------------------------------------------------------|-------------
|----------------------------------------------------------|-------------
|----------------------------------------------------------|-------------



-----16---------------11-14-12-|-11-14-12-11-9---------|-----------------
--17----19-17bf~---\-----------|----------------12bf~--|-9---------9-----
-------------------------------|-----------------------|---9h11h13---9h11
-------------------------------|-----------------------|-----------------
-------------------------------|-----------------------|-----------------
-------------------------------|-----------------------|-----------------


  1/2
-------|-16/19--16-19-16----16-------16----------|-14----------12--------
-------|-----------------17----19p17----19p17p16-|----17p16p14----16p14p12
-13b~--|-----------------------------------------|-----------------------
-------|-----------------------------------------|-----------------------
-------|-----------------------------------------|-----------------------
-------|-----------------------------------------|-----------------------



-11-14-------14-14------|-14------------------------|--------------------
-------12p10-------10p9-|---------------------------|-------------13-14--
------------------------|-----11bf--rb11p9~---11/14-|-------13-14--------
------------------------|---------------------------|-13h14--------------
------------------------|---------------------------|--------------------
------------------------|---------------------------|--------------------



--11h12h14-16--11-12h14\-17bf~-----|------------------------------------|
-----------------------------------|------------------------------------|
-----------------------------------|--synth solo------------------------|
-----------------------------------|------------------------------------|
-----------------------------------|------------------------------------|
-----------------------------------|------------------------------------|

Rhythm under synth solo

|-------------------------------|-------------------------------|--------
|-------------------------------|-------------------------------|--------
|----------------------------7--|-9-----------------------------|--------
|-------------------9--------7--|-9-----------------------------|--------
|-------------------7--------5--|-7--7--7--7--7--7--7--7--7--7--|--------
|-0--0--0--0--0--0--0--0--0-----|----0--0--0--0--0--0--0--0--0--|-0--0--0



----------------------|-----------------------------------------|--------
----------------------|-----------------------------------------|--------
----------------------|-----------------------------------------|--------
----------------------|--9--------------------------------------|--------
-7--7--7--7--7--7-10--|--7--7--7--7--7--7--7--7--7--7--7--7--7--|-7--7--7
-0--0--0--0--0--0--8--|-----0--0--0--0--0--0--0--0--0--0--0--0--|-0--0--0



------------------|-------------------------------|----------------------
------------------|-------------------------------|----------------------
--------------7---|-9-----------------------------|----------------------
--------------7---|-9-----------------------------|----------------------
-7--7--7------5---|-7--7--7--7--7--7--7--7--7--7--|-7--7--7--7--7--7-----
-0--0--0--0-------|----0--0--0--0--0--0--0--0--0--|-0--0--0--0--0--0--0--



------------|-15h17p15p13\12----------12h13-15p13p12---------------------
------------|----------------13-13-15----------------15p13p12----12-13---
------------|-------------------------------------------------14---------
------------|------------------------------------------------------------
-------2p0--|------------------------------------------------------------
-0--0-------|------------------------------------------------------------



--12h13p12--|-------------------------------|-8-7-8/10-7-8-10/12-8-10h12-
------------|-15p13p12----------------------|----------------------------
------------|----------14p13----------------|----------------------------
------------|----------------15-12----------|----------------------------
------------|-----------------------15-12~--|----------------------------
------------|-------------------------------|----------------------------


                    1 1/2
--13p12p10--------|-/21b~-----|19-----------17-----------15----------12--
-----------13p10--|-----------|---17-----------15-----------13-----------
------------------|-----------|------19-17--------17-16--------14\13-----
------------------|-----------|------------------------------------------
------------------|-----------|------------------------------------------
------------------|-----------|------------------------------------------


             trem
-----------|--12---12~--10h12-|-13-12-10----15-12-13-15-13p12----17-13-15
-12--------|------------------|----------13-------------------15---------
----14p13--|------------------|------------------------------------------
-----------|------------------|------------------------------------------
-----------|------------------|------------------------------------------
-----------|------------------|------------------------------------------



-17-15p13----|-17/19-15-17-19-17p15----17/20p19-17-----------------------
----------15-|----------------------15-------------20p19-17-16-----------
-------------|-------------------------------------------------17p16-----
-------------|-----------------------------------------------------------
-------------|-----------------------------------------------------------
-------------|-----------------------------------------------------------



------------|-------------|
------------|-------------|
------------|-------------|
--19p17p16--|-------------|
------------|--19-18~-----|
------------|-------------|


   
|------------------|----------------------|---------------------|--------
|------------------|----------------------|---------------------|--------
|--4---------------|-------------------5--|-4-------------------|-4------
|--4---------------|-------------------5--|-4-------------------|-4------
|--2--2-2-2-2-2-2--|-2-2-2-2-2-2-2-2-2----|-2-2-2-2-2-2-2-2-2-2-|-2-2-2-2
|------------------|----------------------|---------------------|--------


There's  
------------|
------------|
------------|
------------|
--2-2-2-----|
--------9\--|


Chorus
See you in hell _____

Out
|---------------------------|-------------------------------------------|
|---------------------------|-------------------------------------------|
|---------------------------|-------------------------------------------|
|---------------------------|-------------------------------------------|
|--5-8-7-5------------------|--7-\--------------------------------------|
|----------8-7-5-8-7-4-5-7--|--5-\--------------------------------------|





Comments


Popular Yngwie Malmsteen tabs & chords
Black Star Bass Tabs
Far Beyond The Sun Bass Tabs
Air 1 Tabs
Big Foot Tabs
Crystal Ball Tabs
Dark Star Tabs
Gates Of Babylon Tabs
Memories 1 Tabs
No Mercy Tabs
Vengeance Intro Tabs


Song lyrics



↑ Back to top | Tablatures and chords are parodies/interpretations of the original songs. You may use it for private study, scholarship, research or language learning purposes only
© 2014 AZChords.com Contact us | Privacy policy | DMCA | Add/correct tabs | Request tabs | Top 50 tabs