>
 >
Riots In The Dongeon

Riots In The Dongeon Guitar Tabs

Yngwie Malmsteen - Riots In The Dongeon chords, tabs, tablatures, lyrics

Guitar lessons | Add/correct | Request | Top 50 tabs Artists:  A B C D E F G H I J K L M N O P Q R S T U V W X Y Z 0-9

Riots In The Dongeon Guitar Tabs – Yngwie Malmsteen

CD, Sheet music, Poster

Do you like Riots In The Dongeon? Share with your friends now
Tabs
Hope you like it enjoy
(/Distortion..)
   repeat 3x===========================================================
|---------------------------------------|-------------------------------|
|---------------------------------------|-------------------------------|
|---------------------------------------|-------------------------------|
|---------------------------------------|-5p2--3p2-------5p2--3p2-------|
|-------------------------------4h5h7---|-----------5p4------------5p4--|
|-5--5--5---5--5--5---3--5--6-----------|-------------------------------|



|--------------------------------|--------------------------------------|
|--------------------------------|--------------------------------------|
|--------------------------------|--------------------------------------|
|--------------------------------|-5p2--3p2-------8p5--7p5--------------|
|-------------------------4h5h7--|-----------5p4------------8p7---------|
|-5--5--5--5~---3--5--6----------|--------------------------------------|


 play 3x
|-------------------------------------|---------------------------------|
|-------------------------------------|---------------------------------|
|-------------------------------------|---------------------------------|
|-------------------------------------|-7p4--5p4-------7p4--5p4---------|
|------------------------------6h7h9--|-----------7p6------------7p6----|
|-7--7--7---7--7--7---5--7--8---------|---------------------------------|



|--------------------------------------|--------------------------------|
|--------------------------------------|--------------------------------|
|--------------------------------------|--------------------------------|
|--------------------------------------|-7p4--5p4-------10p7--9p7-------|
|-------------------------------6h7h9--|-----------7p6-------------10p9-|
|-7--7--7---7--7--7---5--7--8----------|--------------------------------|


play 3x
|-----------------------------------|-----------------------------------|
|-----------------------------------|-----------------------------------|
|-----------------------------------|-----------------------------------|
|-----------------------------------|-----------------------------------|
|----------------------------5h6h7--|---------------------------5h6h7---|
|-0--0--0---3p0-0---5--6--7---------|-0--0--0---3p0-0--5--6--7----------|



|----------------------------------|------------------------------------|
|----------------------------------|------------------------------------|
|----------------------------------|------------------------------------|
|----------------------------------|-9----------------------------------|
|---------------------------5h6h7--|-9----------------------------------|
|-0--0--0---3p0-0--5--6--7---------|-7---7--7--7--7*--------------------|



Trill the notes with the open string
Attack 4th string as often as necessary during trills (each beat)

|-----------------|---------------|--------------|----------------------|
|-----------------|---------------|--------------|----------------------|
|----7--7--7--7---|---5--5--7--5--|--3--3--3-----|---2--2---------------|
|-----------------|---------------|--------------|----------------------|
|-----------------|---------------|--------------|----------------------|
|-----------------|---------------|--------------|----------------------|



|-------------|----------------|--------------------------------|--------|
|-------------|----------------|-----2h3p2----------------------|--------|
|-3--3--3--3--|--2--2--2-------|---2-------5p3p2----------------|--------|
|-------------|-----------0-2h3|h5---------------5p3p2p0--------|--------|
|-------------|----------------|--------------------------4/5~--|-/17~---|
|-------------|----------------|--------------------------------|--------|



|---------------|--------------|--------------|--------------|-----------|
|---------------|--------------|--------------|--------------|-----------|
|--7--7--7--7---|--5--5--5--5--|--3--3--3--3--|--2--2--3--2--|-3--3--5--3|
|---------------|--------------|--------------|--------------|-----------|
|---------------|--------------|--------------|--------------|-----------|
|---------------|--------------|--------------|--------------|-----------|



|-------------|---------------------------|-----------------------------|
|-------------|-2h3p2h3p2h3p2h5h6p5h6p5---|-----------------------------|
|-2--2--2--2--|---------------------------|--7w/bar---------------------|
|-------------|---------------------------|-----------------------------|
|-------------|---------------------------|-----------------------------|
|-------------|---------------------------|-----------------------------|


Fig. 1
|-------------------------------------|---------------------------------|
|-------------------------------------|---------------------------------|
|-------14-15p14----14----------------|-------14-15p14----14------------|
|----15----------17----17p15-17p15-14-|----15----------17----17p15-14---|
|-17----------------------------------|-17------------------------------|
|-------------------------------------|---------------------------------|



|-------------------------------------|-------------------------13-15h17-|
|-------------------------------------|----------------14h15h17----------|
|-------14-15p14----16----------------|-------14-15-17-------------------|
|----15----------17----17p15-17p15-16-|-15-17----------------------------|
|-17----------------------------------|----------------------------------|
|-------------------------------------|----------------------------------|



Fig.2  (verse)

Locked up in chains, backs to the wall
|---------------------------------|-------------------------------------|
|---------------------------------|-------------------------------------|
|----------7---5-----------3---5--|----------3---2----------------------|
|-0--0--0--8---7--0--0--0--5---7--|-0--0--0--5---3--0--0--0--5----3-----|
|---------------------------------|--------------------------7----5-----|
|---------------------------------|-------------------------------------|


Tick like a time bomb 'till we hear the call
|-----------------------------------|-----------------------------------|
|-----------------------------------|-----------------------------------|
|----------7----5-----------3----2--|-----------------------------------|
|-0--0--0--8----7--0--0--0--5----3--|-0--0--0--5----3--0h2p0h2p0h2------|
|-----------------------------------|----------7----5-------------------|
|-----------------------------------|-----------------------------------|


 Pushed from outside, thrown underground
|-----------------------------------|-----------------------------------|
|-----------------------------------|-----------------------------------|
|----------7----5-----------3----5--|----------3----2-------------------|
|-0--0--0--8----7--0--0--0--5----7--|-0--0--0--5----3--0--0--0--5----0--|
|-----------------------------------|---------------------------7-------|
|-----------------------------------|-----------------------------------|


  Frozen in time, we wait for the sound
|-------------------------------------|---------------------------------|
|-------------------------------------|---------------------------------|
|----------7-----5-----------3-----2--|-2--2--2--0-------------5--------|
|-0--0--0--8--0--7--0--0--0--5--0--3--|-3--3--3--2--0--0-------5--------|
|-------------------------------------|------------------------3--------|
|-------------------------------------|---------------------------------|


Oh              I feel something coming
|------------|-----------------|------------------------------------|----|
|------------|-----------------|------------------------------------|----|
|--3---------|--2--------------|------------------------------------|-%--|
|--3---------|--2----x---------|-0--0--0--0--0--0--0--0--0--0--0--0-|----|
|--1---------|--0----x----12---|------------------------------------|----|
|------------|-----------------|------------------------------------|----|


   Feels like a Riot in the dungeon.
|----------|-----------|-------------------------------------|-----------|
|----------|-----------|-------------------------------------|-----------|
|---3------|---2-------|-------------------------------------|-----%-----|
|---3------|---2-------|-0--0--0--0--0--0--0--0--0--0--0--0--|-----------|
|---1------|---0-------|-------------------------------------|-----------|
|----------|-----------|-------------------------------------|-----------|



|----------------------|------------|
|----------------------|------------|
|-------------------3--|------------|
|-0--0--0--0--0--0--3--|--------0---|
|-------------------1--|--0--4------|
|----------------------|------------|


 Trapped behind bars prisoners of death
|---------------------------------|-------------------------------------|
|---------------------------------|-------------------------------------|
|----------7---5-----------3---5--|----------3---2----------------------|
|-0--0--0--8---7--0--0--0--5---7--|-0--0--0--5---3--0--0--0--5---3------|
|---------------------------------|--------------------------7---5------|
|---------------------------------|-------------------------------------|


  All hope is ours, we can't give up yet
|---------------------------------|-------------------------------------|
|---------------------------------|-------------------------------------|
|----------7---5-----------3---2--|-----------------------------2-------|
|-0--0--0--8---7--0--0--0--5---3--|-0--0--0--5---3--0--2--0--0-----3----|
|---------------------------------|----------7---5----------------------|
|---------------------------------|-------------------------------------|


 Ready to fight to get what we need.
|---------------------------------|-------------------------------------|
|---------------------------------|-------------------------------------|
|----------9---5-----------3---5--|----------3----2---------------------|
|-0--0--0--8---7--0--0--0--5---7--|-0--0--0--5----3--0--0--0--5---0-----|
|---------------------------------|---------------------------7---------|
|---------------------------------|-------------------------------------|


  Die on your feet or live on your knees.
|-------------------------------------|---------------------------------|
|-------------------------------------|---------------------------------|
|----------7-----5-----------3-----2--|-2--2--2--0----------5-----------|
|-0--0--0--8--0--7--0--0--0--5--0--3--|-3--3--3--2--0--0----5-----------|
|-------------------------------------|---------------------3-----------|
|-------------------------------------|---------------------------------|


Oh              I feel something coming                                   
|------------|-----------------|------------------------------------|----|
|------------|-----------------|------------------------------------|----|
|--3---------|--2--------------|------------------------------------|-%--|
|--3---------|--2----x---------|-0--0--0--0--0--0--0--0--0--0--0--0-|----|
|--1---------|--0----x----12---|------------------------------------|----|
|------------|-----------------|------------------------------------|----|
                                                                          
                                                                          
   Feels like a Riot in the dungeon.                                      
|----------|-----------|-------------------------------------|------------
|----------|-----------|-------------------------------------|------------
|---3------|---2-------|-------------------------------------|------------
|---3------|-----------|-0-----0--0--0--0--0-----0--0--0--0--|-0---0--0--0
|---1------|-----------|-------------------------------------|------------
|----------|-----------|-------------------------------------|------------


                         You stand and die or start to running.
-----------------------|--------------|--------5---|---------------------
-----------------------|--------------|------------|---------------------
------3p2p0------------|--3~----------|--2---------|---------------------
--0----------3p2p0-----|--3~-w/bar----|--2---------|-0-0-0-0-0-0-0-0-0---
-----------------------|--1~----------|--0---------|---------------------
-----------------------|--------------|------------|---------------------


'Cause there's a riot in the dungeon
---------|------------------------|-----------|-------------------------|
---------|------------------------|-----------|-------------------------|
---------|------------------------|--3~-------|---12bf----rb12----------|
--0-0-2--|-3-3-3-3-3-5-7-7-7-8\---|--3~-------|-------------------------|
---------|------------------------|--1~-------|-------------------------|
---------|------------------------|-----------|-------------------------|



|-------------------------------------|---------------------------------|
|-------------------------------------|---------------------------------|
|-------14-15p14----14----------------|-------14-15p14----14------------|
|----15----------17----17p15-17p15-14-|----15----------17----17p15-14---|
|-17----------------------------------|-17------------------------------|
|-------------------------------------|---------------------------------|



|-------------------------------------|---------------------------------|
|-------------------------------------|---------------------------------|
|-------14-15p14----14----------------|---------------------------------|
|----15----------17----17p15-17p15-14h|15p14---------14-------15--------|
|-17----------------------------------|------17--16-----16-17----17~----|
|-------------------------------------|---------------------------------|


(A)
|-6h10p6-------5h10p5-------|-6p5---------------------|-6h10p6-------5h10
|--------8p6-5--------6p5---|-----8-6p5---------------|--------8p6-------
|-------------------------7-|-----------7-6-----------|------------9-----
|---------------------------|---------------8-7-7-8p7-|------------------
|---------------------------|-------------------------|------------------
|---------------------------|-------------------------|------------------



-p5--------|----------------------------13-15h17-|----------------------|
----6p5----|-------------------14h15h17----------|----------------------|
--------7--|----------14h15h17-------------------|----------------------|
-----------|-14h15h17----------------------------|----------------------|
-----------|-------------------------------------|----------------------|
-----------|-------------------------------------|----------------------|


               1/2 -to full
|-----------|------------------|----------------------------------------|
|--15bf-----|--15b-------------|-15p12----------------------------------|
|-----------|------------------|-------15p14p12----14p12----------------|
|-----------|------------------|----------------14-------14-------------|
|-----------|------------------|----------------------------------------|
|-----------|------------------|----------------------------------------|



|----------------------14h15h19---15--|-15h18-15-14-------14h17p14--17h20
|----------------15h17----------------|-------------17-16----------------
|-------14h16h17----------------------|----------------------------------
|-16h17-------------------------------|----------------------------------
|-------------------------------------|----------------------------------
|-------------------------------------|----------------------------------



-p17-14h17p14----14h15h17p15p14--|-15p14h15p14-------14------------------
--------------16-----------------|-------------15h17----17p15p13h17--15--
---------------------------------|---------------------------------------
---------------------------------|---------------------------------------
---------------------------------|---------------------------------------
---------------------------------|---------------------------------------



-----------------|----------------------------------------|--------------
--13-12-15-13-12-|-10-13-12-10-8-12-10-8-7-10-8-7-8-7-8-7-|---7--10--8---
-----------------|----------------------------------------|-9------------
-----------------|----------------------------------------|--------------
-----------------|----------------------------------------|--------------
-----------------|----------------------------------------|--------------



--7h8p7------------7------7------7-|-8-------11h12h14----14----14b------|
--------10-8--8h10---8h10---8h10---|---10\9-----------------------------|
-----------------------------------|------------------------------------|
-----------------------------------|------------------------------------|
-----------------------------------|------------------------------------|
-----------------------------------|------------------------------------|


                                       release
                                       to 1/2
|-rb14-12---------------|--15bf-------|--rb15--15---14b---14p12-|-14~---|
|---------12------------|-------------|-------------------------|-------|
|------------12-11------|-------------|-------------------------|-------|
|------------------14---|-------------|-------------------------|-------|
|-----------------------|-------------|-------------------------|-------|
|-----------------------|-------------|-------------------------|-------|



|-15p14----------14-15----14-15-17-14-15-17/19-15-17-19-|-20p19p17-19p17-
|-------17-16h17-------17-------------------------------|----------------
|-------------------------------------------------------|----------------
|-------------------------------------------------------|----------------
|-------------------------------------------------------|----------------
|-------------------------------------------------------|----------------


                       1/2           1/2
--22bf-------14--|-15--14b--rb14p12--19b---|----------------------------|
--------/17------|-------------------------|----------------------------|
-----------------|-------------------------|----------------------------|
-----------------|-------------------------|----------------------------|
-----------------|-------------------------|----------------------------|
-----------------|-------------------------|----------------------------|



|-----------------------|----15----------------|-12---14h15h17p15p14----|
|-15h17--15bf--rb15p13--|-12----12----12h13h15-|---------------------17-|
|-----------------------|----------------------|------------------------|
|-----------------------|----------------------|------------------------|
|-----------------------|----------------------|------------------------|
|-----------------------|----------------------|------------------------|



|-------------------------------------------------|----------------------
|-16h17h19p16-------------------------------------|-------------12-------
|-------------14h16h17p14-------------------------|---------12------14---
|-------------------------13h14h16p13-------------|-----14---------------
|-------------------------------------12h14h15p12-|-14-------------------
|-------------------------------------------------|----------------------



---------------------|------------------------13p12-13-|-----------------
---------------------|--------------12h13h15-----------|-13h15h17--------
--12--11------11-----|----11h12h14---------------------|-----------------
----------14------12h|14-------------------------------|-----------------
---------------------|---------------------------------|-----------------
---------------------|---------------------------------|-----------------



--------------|------------------------------------------------|-17------
--------------|---------------------------------------------17-|---------
--------------|------------------14h16h17p16p14----------16----|---------
--16h17h19p17-|-p16----------16-----------------17p16h17-------|---------
--------------|-----19-18-19-----------------------------------|---------
--------------|------------------------------------------------|---------



-p15p14-----------------|----------------19h20h22p20p19-----19----------|
--------17--19h20p19----|-------19h20h22----------------22--------20----|
---------------------21-|-19h21-----------------------------------------|
------------------------|-----------------------------------------------|
------------------------|-----------------------------------------------|
------------------------|-----------------------------------------------|



|----------------------------------------|-------------------------------
|-13h15p13-12----------------------------|-------------------------------
|--------------14p12h14p12p11--12p11-----|-------------------------------
|------------------------------------14--|-13p12h13-12-13----12h13h14p13p
|----------------------------------------|----------------15-------------
|----------------------------------------|-------------------------------



---------------------------------|
---------------------------------|
---------------------------------|
--12-----------------------------|
------15p14--15p14p12------------|
-----------------------15p14p12--|
FreakMen





Comments


Popular Yngwie Malmsteen tabs & chords
Black Star 2 Bass Tabs
Bad Blood Tabs
Big Foot Tabs
Forever Is A Long Time Tabs
Fuguetta Tabs
Gates Of Babylon Tabs
Heavens Tonight Tabs
Making Love Tabs
No Mercy Tabs
Razor Eater Intro Tabs


Song lyrics



↑ Back to top | Tablatures and chords are parodies/interpretations of the original songs. You may use it for private study, scholarship, research or language learning purposes only
© 2014 AZChords.com Contact us | Privacy policy | DMCA | Add/correct tabs | Request tabs | Top 50 tabs