» » »

Prelude To April Tabs (ver.1)

Artists:  A B C D E F G H I J K L M N O P Q R S T U V W X Y Z # 

Prelude To April Tabs (ver.1)

Yngwie Malmsteen
Rating:
0/5 (0 votes)

Hard to play? Try these video lessons and learn fast.
                Yngwie Malmsteen

C                                 Bsus4                   B
 |---------------------------------|-------------------------ÚÄÄÄ¿-----|
 |-7-------7---8---5-------5-------|-5-------5---7---5-------45454-----|
4|---5---5---5---5---5---5---5---5-|---5---5---5---5---5---5-------4---|
Ä|-----5---------------5-------5---|-----4---------------4-----------4-|
4|---------------------------------|-----------------------------------|
 |---------------------------------|-----------------------------------|


  Bm              F#                 A
|-----------------Ú¿---------------|-------5---------ÚÄÄÄ¿---------5---|
|-3-------3---5---53-------2-----2-|-2-3-------3-----23232-------2---2-|
|---4---4---4---4----4---4---3-----|-----2-------2---------2---2-------|
|-----4----------------4-------4---|---------------2---------2---------|
|----------------------------------|-----------------------------------|
|----------------------------------|-----------------------------------|


   Am                   Esus4           Em
 |---------7875-----| |---------0---------------3-7-7~~~~~~~-|
2|-------5------5---|4|-------0---0---------5----------------|
Ä|-----5----------5-|Ä|-----2-------0-----4------------------|
4|---7--------------|4|---2-----------4-5-----5--------------|
 |-0----------------| |--------------------------------------|
 |------------------| |-0------------------------------------|


  F                         Esus4                 E
|-------------------------|-----------------------ÚÄÄÄÄÄÄÄÄÄÄÄ¿---|
|-12------12--13--10------|-10-----10--12--10-----9-10-9-10-9-9---|
|---10--10--10--10--10----|---10-10--10--10--10-10----------------|
|-----10--------------10--|-----9--------------9----------------9-|
|-------------------------|---------------------------------------|
|-------------------------|---------------------------------------|


  Em               B                    D
|------------------ÚÄÄ¿---------------|-------10--------ÚÄÄÄ¿-----ÚÄÄÄ¿-----|
|-8-------8---10---10-8-------7-----7-|-7-8-------8-----78787-----78787-----|
|---9---9---9----9------9---9---8-----|-----7-------7---------7---------7---|
|-----9-------------------9-------9---|---------------7---------7---------7-|
|-------------------------------------|-------------------------------------|
|-------------------------------------|-------------------------------------|


   Dm                A                   Dm
 |-----------------|-5-----------------|-----------------|
2|-6-------6---8---|---5---------------|-6-------6---8---|
Ä|---7---7---7---7-|-----6-------------|---7---7---7---7-|
4|-----7-----------|-------7---ÚÄ¿-----|-----7-----------|
 |-----------------|---------7-575-4---|-----------------|
 |-----------------|-----------------5-|-----------------|


   Asus4           A
 |---------5-----5------9-12-9-12-/17~~~~~~-|
4|-------5---5-------10---------------------|
-|-----7-------7---9------------------------|
4|---7--------------------------------------|
 |-0----------------------------------------|
 |------------------------------------------|


  Am
|-13-12-10------------------------------------|
|-ÀÄÄÄÄÄÄÙ-13-12-10-9-10----------------------|
|------------------------9--------------------|
|--------------------------10-6-7-------------|
|---------------------------------7-8-7-7~~~~-|
|---------------------------------------------|


  C                                 Bsus4                   B
|---------------------------------|-------------------------ÚÄÄÄ¿-----|
|-7-------7---8---5-------5-------|-5-------5---7---5-------45454-----|
|---5---5---5---5---5---5---5---5-|---5---5---5---5---5---5-------4---|
|-----5---------------5-------5---|-----4---------------4-----------4-|
|---------------------------------|-----------------------------------|
|---------------------------------|-----------------------------------|


  Bm               F#                A
|-----------------Ú¿---------------|-------5-----------------5-------|
|-3-------3---5---53-------2-----2-|-2-3-------3-----------2---2-----|
|---4---4---4---4----4---4---3-----|-----2-------2---2---2-------2---|
|-----4----------------4-------4---|---------------2---2-----------2-|
|----------------------------------|---------------------------------|
|----------------------------------|---------------------------------|


   Am                  Em
 |---------5-------| |-------7-12-78---7-------------|
2|-------5---5---5-|4|------8-------10---810878-87---|
Ä|-----5-------5---|Ä|-----9-------------------9--98-|
4|---7-------------|4|---59--------------------------|
 |-0---------------| |-7-ÀÙ--------------------------|
 |-----------------| |-------------------------------|
                       2 14421 4  124  1 24 21232132
            
Hard to play? Try these video lessons and learn fast. | Correct




comments powered by Disqus
↑ Back to top | Tablatures and chords are parodies/interpretations of the original songs. You may use it for private study, scholarship, research or language learning purposes only