>
 >
Paganinis 5th Caprice

Paganinis 5th Caprice Guitar Tabs

Yngwie Malmsteen - Paganinis 5th Caprice chords, tabs, tablatures, lyrics

Guitar lessons | Add/correct | Request | Top 50 tabs Artists:  A B C D E F G H I J K L M N O P Q R S T U V W X Y Z 0-9

Paganinis 5th Caprice Guitar Tabs – Yngwie Malmsteen

CD, Sheet music, Poster

Do you like Paganinis 5th Caprice? Share with your friends now
Tabs
[u][b]Paganiniís 5th Caprice (Half speed)[/b][/u]

Okay, so I tabbed this transcribed this from the GPro file that's here already, so the
not mine at all. All the notes here are 1/16 notes save the two 1/2 notes on bars 20 and
which are followed by a rest of the same value (indicated on tab anyway). This is a very 
version of the caprice and if you only divide the value of the notes by half
'em 1/32 instead of 1/16) you get something that sounds VERY similar to the real one. 
enjoy, comment, rock on

 1				  2
E|---------------------------------|---------------------------------|
B|---------------------------------|---------------------------------|
G|---------------------------------|---------------------------------|
D|-------------------7-5-----------|-------------------7-5-----------|
A|-----7-----5-7-5-------8-7-5-----|-----7-----5-7-5-------8-7-5-----|
E|-5-8---8-7-------8-----------8-7-|-5-8---8-7-------8-----------8-7-|

 3					   4
E|---------------------------------|---------------------------------8-10-12-|
B|---------------------------------|---------------------------10-12---------|
G|---------------------------------|--------------10---9-10-12---------------|
D|---------------------------------|---------10------9-----------------------|
A|-----7-----5-8-------8-------7---|-----8------9----------------------------|
E|-5-9---9-5-----5-3-7---7-5-8---5-|-3-7---7---------------------------------|

 5							 6
E|--------------------------------------------|--------------------------------------------|
B|-------------------------10-----------------|-------------------------10-----------------|
G|-------9---------9----------12-10-9---------|-------9---------9----------12-10-9---------|
D|----10---10-9-12---12-10------------12-10-9-|----10---10-9-12---12-10------------12-10-9-|
A|-12-----------------------------------------|-12-----------------------------------------|
E|--------------------------------------------|--------------------------------------------|

 7					      8
E|----------------------------------------------|--------------------------------------|
B|------------10---------------12-10------------|--------------------------------------|
G|-------9-------12-10-9-------------12-10-9----|--------------------------5-------4---|
D|----11---11------------11-12---------------12-|-10-9-------------------5-------3-----|
A|-12-------------------------------------------|------12-10-9-10-12-8-7-----7-5-----5-|
E|----------------------------------------------|--------------------------------------|

 9				  10
E|---------------------------------|---------------------------------|
B|---------------------------------|-----------------------3-------5-|
G|-----2---------------------------|---------------5-----4-------5---|
D|---2---------5-------3-------3---|-----2-----2-5-----3-------5-----|
A|-3-----3---5-------3-------3-----|---2---2-3-------5-------7-------|
E|---------2-----7-5-----5-4-----4-|-3-------------------------------|

 11				   12
E|----------------------------------|---8-7-5-----------7-5-----------|
B|-------6------------8-5-----6-----|---------8-6-5---6-----8-7-5-4---|
G|-----5-----8------------5-----7-4-|-2-------------5---------------4-|
D|---7---------10-7-5-------5-------|---------------------------------|
A|-8-------9------------------------|---------------------------------|
E|----------------------------------|---------------------------------|

 13				  14
E|---5-----------------------------|---------------------------5-8---|
B|-5---8-6-5---------8-6-5---------|---6-5-----------------4-7-----7-|
G|-----------7-6---7-------7-5-4---|-5-----7-5-4---------5-----------|
D|---------------7---------------5-|-------------7-5-4-7-------------|
A|---------------------------------|---------------------------------|
E|---------------------------------|---------------------------------|

 15				  16
E|-8---------------7-3-------------|---8-7-6-5-4---------------------|
B|---8-5---------------3-----------|-------------8-7-6-5-------------|
G|-------5---------------4---------|---------------------8-7-6-5-4---|
D|---------5---------------5-------|-------------------------------8-|
A|-----------7-3-------------5-2---|-3-------------------------------|
E|---------------5---------------3-|---------------------------------|

 17				  18
E|---------------------------------|---------------------------------|
B|---------------------------------|---------------------------------|
G|---------------------2-----------|---------------------------------|
D|-7-6-5-4-----------2---5---5-2---|---2-------5-2-----2-------5-2---|
A|---------8-7-6-5-3-------3-----3-|-3-----2-3-----3-3-----2-3-----3-|
E|---------------------------------|-----3---------------3-----------|

 19				  20
E|---------------------------------|---------------------------------|
B|---------------------------------|---------------------Half--------|
G|-----2---------------------------|---------------------rest--------|
D|---2---5---3---------------3-----|---------------------------------|
A|-3-------3---5-2---3-2-------2---|---------------------------------|
E|-----------------5-----5-4-----3-|-5-(Half note)-------------------|

 21					   22
E|---------------------------------|---------------------------------|
B|---------------------------------|---------------------------------|
G|---------------------------------|---------------------------------|
D|---2-------5-2-----2-------5-2---|---5-2-----5-2-----3-------3-----|
A|-3-----2-3-----3-3-----2-3-----3-|-3-----3-2-----2-----3-------3---|
E|-----3---------------3-----------|-----------------5-----5-4-----3-|

 23
E|---------------------------------|
B|---------------------Half--------|
G|---------------------rest--------|
D|---------------------------------|
A|---------------------------------|
E|-5-(Half note)-------------------|





Comments


Popular Yngwie Malmsteen tabs & chords
As Above, So Below Bass Tabs
Locked And Loaded Bass Tabs
Arpeggios From Hell Tabs
Black Star 1 Tabs
Dark Star Tabs
Flamenco Diablo Intro Tabs
Golden Dawn 1 Tabs
Memories 1 Tabs
Now Your Ships Are Burned 1 Tabs
Save Our Love Tabs


Song lyrics



↑ Back to top | Tablatures and chords are parodies/interpretations of the original songs. You may use it for private study, scholarship, research or language learning purposes only
© 2014 AZChords.com Contact us | Privacy policy | DMCA | Add/correct tabs | Request tabs | Top 50 tabs