>
 >
Overture 1383 1

Overture 1383 1 Guitar Tabs

Yngwie Malmsteen - Overture 1383 1 chords, tabs, tablatures, lyrics

Guitar lessons | Add/correct | Request | Top 50 tabs Artists:  A B C D E F G H I J K L M N O P Q R S T U V W X Y Z 0-9

Overture 1383 1 Guitar Tabs – Yngwie Malmsteen

CD, Sheet music, Poster

Do you like Overture 1383 1? Share with your friends now
TabsTabs v2

OVERTURE 1383
As recorded by Yngwie Malmsteen
(From the 1985 Album MARCHING OUT)

        

Words and Music by Yngwie Malmsteen

Gtr I (Eb Ab Db Gb Bb Eb) - 'Untitled'
Gtr II (Eb Ab Db Gb Bb Eb) - 'Untitled'
Gtr III (Eb Ab Db Gb Bb Eb) - 'Acoustic'

                  Intro
  Q.=158
 12/8
  Gtr I
                   PM------|
  W.               e e e e e e e e e E E E   e e e e e e e e e E E E
|---------------||-------------------------|-------------------------|
|---------------||-------------------------|-------------------------|
|---------------||-------------------------|-------------------------|
|---------------||-------------------------|-------------------------|
|---------------||-------------------3-2---|-------------------5-3-2-|
|-x\------------||-1-1-1-1-1-1-1-1-1-----5-|-4-4-4-4-4-4-4-4-4-------|
|
| Gtr II
| W.               E E E E E E E E E E E E   E E E E E E E E E E E E
|---------------||-------------------------|-------------------------|
|---------------||-------------------------|-------------------------|
|---------------||-------------------------|-------------------------|
|---------------||-------------------------|-------------------------|
|---------------||-------------------3-2-0-|-------------------5-3-2-|
|-x\------------||-1-1-1-1-1-1-1-1-1-------|-4-4-4-4-4-4-4-4-4-------|


  PM-------|
  e  e e e e e e e e E E E   e  e e e e e  e  e e E  E E
|--------------------------|-----------------------------|
|--------------------------|-----------------------------|
|--------------------------|-----------------------------|
|--------------------------|-----------------------------|
|--------------------7-5-3-|----------------------8--7-5-|
|-5--5-5-5-5-5-5-5-5-------|-7--7-7-7-7-7--7--7-7--------|
|
|                            ~~
| Q.     E E E E E E E E E   H.           +Q.     E  E E
|--------------------------|-----------------------------|
|--------------------------|-----------------------------|
|-2------------------------|-----------------------------|
|-2------------------------|----------------------7------|
|-0------0-0-0-0-0-0-7-5-3-|-5------------(5)-------10-8-|
|--------------------------|-----------------------------|


  e e e  E E E  e  e  e E E  E
|-------------------------------|
|-------------------------------|
|-------------------------------|
|-------------------------------|
|--------7-5------------5-------|
|-8-8-8------8--7--7--7---8--7--|
|
| E E E  E E E  E  E  E E E  E
|-------------------------------|
|-------------------------------|
|-------------------------------|
|-------------------------------|
|-7-7-7-10-8-7----------8-7-----|
|--------------10-10-10-----10--|


  e e e E  E E Q E E  E E   e e e  E E E  e  e  e E E  E
|-------------------------|------------------------------|
|-------------------------|------------------------------|
|-------------------------|------------------------------|
|-------------------------|------------------------------|
|------------------8--7-5-|--------7-5------------5------|
|-5-5-5-8--7-5-4----------|-8-8-8------8--7--7--7---8--7-|
|
| E E E E  E E Q E E  E E   E E E  E E E  E  E  E E E  E
|-------------------------|------------------------------|
|-------------------------|------------------------------|
|-------------------------|------------------------------|
|------------------7------|------------------------------|
|-------7------------10-8-|-7-7-7-10-8-7----------8-7----|
|-8-8-8---10-8-7----------|--------------10-10-10-----10-|


  e e e E  E E e  e e E E E
|---------------------------|
|---------------------------|
|---------------------------|
|---------------------------|
|---------------------3-2---|
|-5-5-5-8--7-5-4--4-4-----5-|
|
| E E E E  E E Q.     E E E
|---------------------------|
|---------------------------|
|---------------------------|
|---------------------------|
|-------7-------------------|
|-8-8-8---10-8-7------8-7-5-|


  PM------|
  e e e e e e e e e E E E   e e e e e e E E E E E E   e e e e e e e e e E E E
|-------------------------|-------------------------|--------------------------|
|-------------------------|-------------------------|--------------------------|
|-------------------------|-------------------------|--------------------------|
|-------------------------|-------------------------|--------------------------|
|-------------------3-2---|-------------------5-3-2-|-------------------7-5-3--|
|-1-1-1-1-1-1-1-1-1-----5-|-4-4-4-4-4-4-4-4-4-------|-5-5-5-5-5-5-5-5-5--------|
|
| E E E E E E E E E E E E   E E E E E E E E E E E E   E E E E E E E E E E E E
|-------------------------|-------------------------|--------------------------|
|-------------------------|-------------------------|--------------------------|
|-------------------------|-------------------------|--------------------------|
|-------------------------|-------------------------|--------------------------|
|-------------------3-2-0-|-------------------5-3-2-|-0-0-0-0-0-0-0-0-0-0-2-3--|
|-1-1-1-1-1-1-1-1-1-------|-4-4-4-4-4-4-4-4-4-------|--------------------------|


  e  e e e e e  e  e e E  E E
|-----------------------------|
|-----------------------------|
|-----------------------------|
|-----------------------------|
|----------------------8--7-5-|
|-7--7-7-7-7-7--7--7-7--------|
|
| ~~
| H.           +Q.     E  E E
|-----------------------------|
|-----------------------------|
|-----------------------------|
|----------------------7------|
|-5------------(5)-------10-8-|
|-----------------------------|


  e e e  E E E  e  e  e E E  E   e e e E  E E Q   E E  E E
|------------------------------|----------------------------|
|------------------------------|----------------------------|
|------------------------------|----------------------------|
|------------------------------|----------------------------|
|--------7-5------------5------|--------------------8--7-5--|
|-8-8-8------8--7--7--7---8--7-|-5-5-5-8--7-5-4-------------|
|
| E E E  E E E  E  E  E E E  E   E E E E  E E E E E E  E E
|------------------------------|----------------------------|
|------------------------------|----------------------------|
|------------------------------|----------------------------|
|------------------------------|--------------------7-------|
|-7-7-7-10-8-7----------8-7----|-------7--------------10-8--|
|--------------10-10-10-----10-|-8-8-8---10-8-7-7-----------|


  e e e  E E E  e  e  e E E  E   e e e E  E E E Q   S  S  S  S  S S
|------------------------------|-------------------13p12p10----------|
|------------------------------|----------------------------13p12p9/-|
|------------------------------|-------------------------------------|
|------------------------------|-------------------------------------|
|--------7-5------------5------|-------------------------------------|
|-8-8-8------8--7--7--7---8--7-|-5-5-5-8--7-5-4----------------------|
|
| E E E  E E E  E  E  E E E  E   E E E E  E E E Q   S  S  S  S  S S
|------------------------------|-------------------13p12p10----------|
|------------------------------|----------------------------13p12p9--|
|------------------------------|-------------------------------------|
|------------------------------|-------------------------------------|
|-7-7-7-10-8-7----------8-7----|-------7-----------------------------|
|--------------10-10-10-----10-|-8-8-8---10-8-7----------------------|


                           ~~~
   E Q   S  S  S  S  S  S  Q.    S  S  S  S  S S
|-------17p15p13----------------13p12p10---------|
|-10-------------17-15-12-13-------------13p12p9-|
|------------------------------------------------|
|------------------------------------------------|
|------------------------------------------------|
|------------------------------------------------|
|
|                          ~~~
|  E Q   S  S  S  S  S  S  Q.    S  S  S  S  S S
|-------13p12p10----------------13p12p10---------|
|-10-------------13-12--9-10-------------13p12p9-|
|------------------------------------------------|
|------------------------------------------------|
|------------------------------------------------|
|------------------------------------------------|


                           ~~~
   E Q   S  S  S  S  S  S  Q.    S  S  S  S  S  S
|-------17p15p13----------------17p15p13----------|
|-10-------------17p15p12-13-------------17p15-12-|
|-------------------------------------------------|
|-------------------------------------------------|
|-------------------------------------------------|
|-------------------------------------------------|
|
|                          ~~~
|  E Q   S  S  S  S  S  S  Q.    S  S  S  S  S  S
|-------13p12p10----------------13p12p10----------|
|-10-------------13p12--9-10-------------13p12--9-|
|-------------------------------------------------|
|-------------------------------------------------|
|-------------------------------------------------|
|-------------------------------------------------|


   E Q   E Q   E  Q   E Q     E Q   E Q   E Q    E Q
|-------13----12-----10----|-------13----12-----10------|
|-13-----------------------|-13-------------------------|
|--------------------------|----------------------------|
|--------------------------|----------------------------|
|--------------------------|----------------------------|
|--------------------------|----------------------------|
|
|  E Q   E Q   E  Q   E Q     E Q   E Q   E   Q    E Q
|--------------------------|----------------------------|
|-10-----9----10------9----|-10-----9----10--------9----|
|--------------------------|----------------------------|
|--------------------------|----------------------------|
|--------------------------|----------------------------|
|--------------------------|----------------------------|


                          >            <
                          ~~~~~~~~~~~~~~~~
   E Q  Q.    Q.   Q.     W.           W.
|-----------------------|-----------|--------||
|-13---------12---------|-----------|-10-----||
|-----------------------|-2---------|--------||
|-----------------------|-2---------|--------||
|-----------------------|-0---------|--------||
|-----------------------|-----------|--------||
|
|                         >            <
|             ~~~         ~~~~~~~~~~~~~~~~
|  E Q  Q.    Q.   Q.     W.           W.
|-----------------------|-----------|--------||
|-10----------9---------|-----------|-13-----||
|-----------------------|-2---------|--------||
|-----------------------|-2---------|--------||
|-----------------------|-0---------|--------||
|-----------------------|-----------|--------||


 Main Theme
  Q=126
 3/4
  Gtr I
                      ~~~              ~~~
   H.              a  H         Q      H           Q
|---------------|-------------------|------------------|
|-10------------|-15-17--------17---|-15----------13---|
|---------------|-------------------|------------------|
|---------------|-------------------|------------------|
|---------------|-------------------|------------------|
|---------------|-------------------|------------------|
|
| Gtr II
|  ~~~~~~~~~~~~~~~~~~~~~~~~~~~~~~~~~~~~~~~~~~~~~~~~~~~~~
|  H.                 H.               H.
|---------------|-------------------|------------------|
|-13------------|----13-------------|-12---------------|
|---------------|-------------------|------------------|
|---------------|-------------------|------------------|
|---------------|-------------------|------------------|
|---------------|-------------------|------------------|
|
| Gtr III
|  E  E E E E E       E  E E E  E E    E  E E S S  E E
|-----------0---|---------------0---|------------------|
|---------1---1-|------------1----1-|---------0h1p=0---|
|-------2-------|----------0--------|-------0--------0-|
|-----2---------|--------2----------|-----0------------|
|--0------------|-----3-------------|------------------|
|---------------|-------------------|--3---------------|


   ~~~                ~~~                 ~~~
   H.              a  H         a  Q      H.
|---------------|----------------------|----------------|
|-12------------|-12-13--------13-12---|-10-------------|
|---------------|----------------------|----------------|
|---------------|----------------------|----------------|
|---------------|----------------------|----------------|
|---------------|----------------------|----------------|
|
|~~~~~                ~~~~~~~~~~~~~~~~~~~~~~~
|  H.              a  H.                  H.
|---------------|----------------------|----------------|
|--8------------|--8-10----------------|--7-------------|
|---------------|----------------------|----------------|
|---------------|----------------------|----------------|
|---------------|----------------------|----------------|
|---------------|----------------------|----------------|
|
|  E  E E E E E       E  E E E     E E    E  E E E E E
|-------------0-|----------------------|-----------2----|
|-----------0---|------------0-----1---|---------3---3--|
|---------0-----|----------2---------2-|-------2--------|
|-------2-------|--------2-------------|-----0----------|
|-----2---------|-----0----------------|----------------|
|--0------------|----------------------|--2-------------|


  Gtr I
   ~~~            ~~~~~~~~~~~~~~~~~~~~~~~~~~
   H         Q    H.               H.
|---------------|---------------|----------|
|-12---------9--|---------------|-10-------|
|---------------|-9-------------|----------|
|---------------|---------------|----------|
|---------------|---------------|----------|
|---------------|---------------|----------|
|
| Gtr II
|  ~~~                             ~~~~~~~~~
|  H.             Q   a  Q   Q     H.
|---------------|---------------|----------|
|--9------------|---------------|----------|
|---------------|-9---9S13--16--|-14-------|
|---------------|---------------|----------|
|---------------|---------------|----------|
|---------------|---------------|----------|


 ~~~~~~~~~~~~~~~~~~~~~~
   H.         H      Q     H.         Q    E  S  S  Q
|----------|------------|----------|-------------------|
|-17-------|-17-----13--|-12-------|-13---12h13p12-10--|
|----------|------------|----------|-------------------|
|----------|------------|----------|-------------------|
|----------|------------|----------|-------------------|
|----------|------------|----------|-------------------|
|
|~~~~~~~~~~~~~~~~~~~~~~~~~~~~~~~~~~~~~~~~
|  H.         H.           H.         H.
|----------|------------|----------|-------------------|
|-13-------|-12---------|--8-------|--6----------------|
|----------|------------|----------|-------------------|
|----------|------------|----------|-------------------|
|----------|------------|----------|-------------------|
|----------|------------|----------|-------------------|


                ~~~~~~~~~~~~~~~~~~~~~~~~~~~~~~~~~
   Q   Q  Q     H.         +H.          H.
|------------|----------|-----------||----------|
|-12p=10--9--|-10-------|-(10)------||-10-------|
|------------|----------|-----------||----------|
|------------|----------|-----------||----------|
|------------|----------|-----------||----------|
|------------|----------|-----------||----------|
|
|  ~~~          ~~~~~~~~~~~~~~~~~~~~~~~~~~~~~~~~~
|  H      Q     H.         +H.          H.
|------------|----------|-----------||----------|
|--9---------|-10-------|-(10)------||-13-------|
|---------9--|----------|-----------||----------|
|------------|----------|-----------||----------|
|------------|----------|-----------||----------|
|------------|----------|-----------||----------|


 ~~~~~                     ~~~~~~~~~~~~~~~~~~~~~~~~~~~~~~~
   H.         a  H         Q        H.           H      Q
|----------|------------------|-------------|---------------|
|-17-------|-15S17tr13----13--|----12-------|---13-----12---|
|----------|------------------|-------------|---------------|
|----------|------------------|-------------|---------------|
|----------|------------------|-------------|---------------|
|----------|------------------|-------------|---------------|
|
|~~~~~~~~~~~~~~~~~~~~~~             ~~~          ~~~
|  H.            H         Q     a  H.        a  H.
|----------|------------------|-------------|---------------|
|-13-------|----12--------10--|-10S=8-------|-8S10----------|
|----------|------------------|-------------|---------------|
|----------|------------------|-------------|---------------|
|----------|------------------|-------------|---------------|
|----------|------------------|-------------|---------------|


   ~~~                           ~~~~~~~~~
   H.         Q.       +E  Q     H.
|----------|------------------|----------|
|-10-------|-12pb14r==(12)-9S=|==5-------|
|----------|------------------|----------|
|----------|------------------|----------|
|----------|------------------|----------|
|----------|------------------|----------|
|
|  ~~~~~~~~~~~~~~~~~~~~~~~~~~~~~~~~~
|  H.         H.                 H.
|----------|------------------|----------|
|--7-------|--9---------------|----------|
|----------|------------------|----------|
|----------|------------------|-10-------|
|----------|------------------|----------|
|----------|------------------|----------|


 ~~~~~~~~~~~~~~~~~~           ~~          ~~~
     H.         H.         a  H     Q     H.
|------------|----------|--------------|--------|
|---10-------|-17-------|-15S17----13--|-12-----|
|------------|----------|--------------|--------|
|------------|----------|--------------|--------|
|------------|----------|--------------|--------|
|------------|----------|--------------|--------|
|
|    ~~~~~~~~~~~~~~           ~~          ~~~
| a  H.         H.         a  H     Q     H.
|------------|----------|--------------|--------|
|-8-10-------|-13-------|-12-13----10--|--8-----|
|------------|----------|--------------|--------|
|------------|----------|--------------|--------|
|------------|----------|--------------|--------|
|------------|----------|--------------|--------|


     Q    E  S  S  Q    S  S  S S S S  S S S S S S
|---------------------|----------------------------|
|---13---12h13p12p10--|-9h10h12p9------------------|
|---------------------|-----------7h9h10p7---------|
|---------------------|--------------------6h7h9p6-|
|---------------------|----------------------------|
|---------------------|----------------------------|
|
|    ~~~~~~~~~~~~~~~~~~~~~~~~~~~~~~~~~~~~~~~~~~~~~~~
| a  H.                 H.
|---------------------|----------------------------|
|-8S10----------------|-9--------------------------|
|---------------------|----------------------------|
|---------------------|----------------------------|
|---------------------|----------------------------|
|---------------------|----------------------------|


   E   E E  E  a  E  E     H.
|----------------------|-------||
|----------10-12S13-12-|--10---||
|--------9-------------|-------||
|--7--10---------------|-------||
|----------------------|-------||
|----------------------|-------||
|
|~~~~~~~~~~~~~~~~~~~~~~~~~~~~~
|  H.                     +H.
|----------------------|-------||
|-10-------------------|-(10)--||
|----------------------|-------||
|----------------------|-------||
|----------------------|-------||
|----------------------|-------||


      ~~~~~~                             ~~~~~~~~~~~~~~~~~~~~~
      H.            +Q    Q        Q     H.         +H.
|----------------|--------------------|----------|-----------|
|----15pb17------|-(15)--15-------13--|-12-------|-(12)------|
|----------------|--------------------|----------|-----------|
|----------------|--------------------|----------|-----------|
|----------------|--------------------|----------|-----------|
|----------------|--------------------|----------|-----------|
|
|     ~~~~~~                             ~~~~~~~~~~~~~~~~~~~~~
|  a  H.            +Q    E  S  S  Q     H.         +H.
|----------------|--------------------|----------|-----------|
|-12s13----------|-(13)--12h13p12-10--|--8-------|--(8)------|
|----------------|--------------------|----------|-----------|
|----------------|--------------------|----------|-----------|
|----------------|--------------------|----------|-----------|
|----------------|--------------------|----------|-----------|


 ~~~~                               ~~~~~~~~~~~~~~~
  H.          Q     Q       +Q      H.         +H.
|---------|----------------------|----------|--------|
|-8-------|-[20]--(20)b22--(20)--|-10-------|-(10)---|
|---------|----------------------|----------|--------|
|---------|----------------------|----------|--------|
|---------|----------------------|----------|--------|
|---------|----------------------|----------|--------|
|
|~~~~~~~~~~~~~~~~~~~~~~~~~~~~~~~~~~~~~~~~~~~~~~~~~~
| H.         +H.                    H.         +H.
|---------|----------------------|----------|--------|
|-5-------|--(5)-----------------|--6-------|--(6)---|
|---------|----------------------|----------|--------|
|---------|----------------------|----------|--------|
|---------|----------------------|----------|--------|
|---------|----------------------|----------|--------|


                    ~~~~~~~~~~                      ~~~~~~~~~~~
   Q    S  S  S  S  Q     +E.  +S   E  Q.      +E   E  +H
|---------14-17S20-20--|-(20)-(20)\---19----|-(19)-19-(19)----|
|-13---16--------------|--------------------|-----------------|
|----------------------|--------------------|-----------------|
|----------------------|--------------------|-----------------|
|----------------------|--------------------|-----------------|
|----------------------|--------------------|-----------------|
|
|  ~~~~~~~~~~~~~~~~~~~~~~~~~~~~~~~~~~~~~~~~~~~~~~~~~~~~~~~~~~~~
|  H.                     +H.                   H.
|----------------------|--------------------|-----------------|
|--4-------------------|--(4)---------------|---5-------------|
|----------------------|--------------------|-----------------|
|----------------------|--------------------|-----------------|
|----------------------|--------------------|-----------------|
|----------------------|--------------------|-----------------|


 ~~~~~~~~~~
   Q    Q.   E    S   S  S  S  S  S  S  S  E     E
|-19---19------|--------13h16h19p16p13--------------|
|--------------|-----15----------------15-----------|
|--------------|-16-----------------------16b17-16--|
|--------------|------------------------------------|
|--------------|------------------------------------|
|--------------|------------------------------------|
|
|~~~~~~~~~~~~~~~~~~~~
| +H.             H.
|--------------|------------------------------------|
|-(5)----------|--9---------------------------------|
|--------------|------------------------------------|
|--------------|------------------------------------|
|--------------|------------------------------------|
|--------------|------------------------------------|


   S   S  S      S   S    S   S S S  S S S
|------------------------------------------|
|------------------------------------------|
|-10--13--------10-------------------------|
|--------12----------9---12-----9--------9-|
|----------------------------11---8-11-7---|
|------------------------------------------|
|
| +Q      Q         +E   +E
|------------------------------------------|
|-(9)----10b12=====(10)r(10)---------------|
|------------------------------------------|
|------------------------------------------|
|------------------------------------------|
|------------------------------------------|


   ~~~                             ~~~~
   Q   S S  S S  S  S  S  S       +Q    +Q    Q
|------------------------------|-----------------|
|------------------12-13-12b13-|-(12)--(12)--10--|
|-------------9-14-------------|-----------------|
|--7---7h9h10------------------|-----------------|
|------------------------------|-----------------|
|------------------------------|-----------------|
|
|  ~~~~~~~~~~~~~~~~~~~~~~~~~~~~~~~~~~~
|  H.                              H.
|------------------------------|-----------------|
|-10---------------------------|---8-------------|
|------------------------------|-----------------|
|------------------------------|-----------------|
|------------------------------|-----------------|
|------------------------------|-----------------|


   ~~~                                   ~~~~~~~~~~~~~~~~~~~~~~~~~~
                      |------6------|
   H.         +H      S  S S  S  S  S    H.            +Q    H
|----------|-----------------------12-|-15pb17------|-(15)--15pb17------------|
|-10-------|-(10)---------------13----|-------------|-------------------------|
|----------|---------------9-14-------|-------------|-------------------------|
|----------|------------10------------|-------------|-------------------------|
|----------|---------12---------------|-------------|-------------------------|
|----------|--------------------------|-------------|-------------------------|
|
|  ~~~~~~~~~~~~~~~~~~~~~~~~~~~~~~~~~~~~~~~~~~~~~~~~~~~~~~~~~~~~~~~~~~~~~
|  H.         +H.                        H.             H           +E. +S
|----------|--------------------------|-------------|-------------------------|
|--7-------|--(7)---------------------|--6----------|---6-----------(6)-(6)\--|
|----------|--------------------------|-------------|-------------------------|
|----------|--------------------------|-------------|-------------------------|
|----------|--------------------------|-------------|-------------------------|
|----------|--------------------------|-------------|-------------------------|


                                          ~~
   |-------3-------|         |-----6------|
   S      +S      +S   S  S  S   S  S  S  E  +E.  S
|-17b19==(17)r===(17)-14--------------10-14-(14)----|
|------------------------16-13S=10-13------------13-|
|---------------------------------------------------|
|---------------------------------------------------|
|---------------------------------------------------|
|---------------------------------------------------|
|
|             ~~~~~~~~~~~~~~~~~~~~~~~~~~~~~~~~~~~~~~~
|  S          E.            +H
|---------------------------------------------------|
|--4----------4-------------(4)---------------------|
|---------------------------------------------------|
|---------------------------------------------------|
|---------------------------------------------------|
|---------------------------------------------------|


          |--3--|
   S   S  S  S  S  Q   +E.  T  T
|--------------------------------|
|-10-----------10-13--(13)S12p10-|
|-----11----14-------------------|
|--------13----------------------|
|--------------------------------|
|--------------------------------|
|
|~~~~~
| +H.
|--------------------------------|
|-(4)----------------------------|
|--------------------------------|
|--------------------------------|
|--------------------------------|
|--------------------------------|


                                             Ensemble
   ~~~                                         ~~~~~      ~          ~     ~
              |--3--|
   H      +E  S  S  S    Q.    E  +E   S S     Q  Q  Q    Q  Q  Q    Q  Q  Q
|---------------------|--------------------||-----------|----------|----------|
|-12-----(12)------12h|=17p===12-(12)------||-10--9--6--|-5--------|-9--6--5--|
|-------------9-13----|---------------13p9-||-----------|----7--5--|----------|
|---------------------|--------------------||-----------|----------|----------|
|---------------------|--------------------||-----------|----------|----------|
|---------------------|--------------------||-----------|----------|----------|
|
|  ~~~~~~~~~~~~~~~~~~~~~~~~~~~~~~~~~~~~~~~~~~~~~~~~~      ~          ~~~~~
|  H.                   +H.                    Q  Q  Q    Q  Q  Q    Q  Q  Q
|---------------------|--------------------||-----------|----------|----------|
|---------------------|--------------------||--6--5--3--|----------|-5--3-----|
|--9------------------|-(9)----------------||-----------|-5--4--2--|-------5--|
|---------------------|--------------------||-----------|----------|----------|
|---------------------|--------------------||-----------|----------|----------|
|---------------------|--------------------||-----------|----------|----------|


             ~             ~       ~
  Q  Q  Q    Q  Q  Q    Q  Q  Q    Q  Q  Q
|----------|----------|----------|-----------|
|----------|-6--5-----|----------|-5--3------|
|-7--5--4--|-------7s=|=5--4--2--|-------5---|
|----------|----------|----------|-----------|
|----------|----------|----------|-----------|
|----------|----------|----------|-----------|
|
| ~          ~     ~~~~~~~         ~~~~~
| Q  Q  Q    Q  Q  Q    Q  Q  Q    Q  Q  Q
|----------|----------|----------|-----------|
|----------|-3--------|----------|-----------|
|-4--2--1--|----5--4--|-2--1-----|-5--4--2---|
|----------|----------|-------3--|-----------|
|----------|----------|----------|-----------|
|----------|----------|----------|-----------|


                                                   \3_____/
                 ~~~~~~~~~~~            T
  E S S Q   Q    H      +E   E     a    H.         H      Q
|--------------|----------------|---------------|------------||
|--------------|----------------|---------------|------------||
|-4h5p4p2---1s=|=2------(2)-(x)-|--2--<14>------|--2---------||
|--------------|----------------|---------------|------------||
|--------------|----------------|---------------|------------||
|--------------|----------------|---------------|---------x--||
|
| ~~             ~~~~~~~~~~~~~~~~~~~~~~~~~~~~~~~~~~~~~~
| Q   Q   Q      H.               +H.             +H.
|--------------|----------------|---------------|------------||
|--------------|----------------|---------------|------------||
|-1------------|----------------|---------------|------------||
|-----3---2----|-3--------------|-(3)-----------|-(3)--------||
|--------------|----------------|---------------|------------||
|--------------|----------------|---------------|------------||


 Outro Solo
  Half Time Rubato Tempo Q=88
 2/4                        4/4
                  |--3--|
    E      +E  E  S  S  S     Q       +Q       +Q    +E   E
|----------------------12-||-15pb17r=(15)b17--(15)--(15)-15-|
|-------------------13----||--------------------------------|
|-/12pb14r(12)-x-14-------||--------------------------------|
|-------------------------||--------------------------------|
|-------------------------||--------------------------------|
|-------------------------||--------------------------------|


   ~~                                       ~~~~
   Q   +S   S  S S  E E   T   T  T  T      +E
|-15--(15)p13s12---15--------------19b20==(19)r|
|----------------x--------------17-------------|
|----------------------------17----------------|
|-----------------------(19)-------------------|
|----------------------------------------------|
|----------------------------------------------|


 ~
            |----------6----------|
   +Q.   E  S  S  S  S      +S   +S   E      +T   +T   T  T
|-(19)-----------17-19b20==(19)r(19)-19b20==(19)r(19)-17p15-|
|-------------17--------------------------------------------|
|----------17-----------------------------------------------|
|-----------------------------------------------------------|
|-----------------------------------------------------------|
|-----------------------------------------------------------|


   ~~
   Q   E E E  S       S   S  S  S      +S
|-17--19-----19b22==(20)r19p17-21b24==(21)r|
|------------------------------------------|
|------------------------------------------|
|------------------------------------------|
|------------------------------------------|
|------------------------------------------|


         |------6-------|  |-------------12:8---------------|
   +Q    S  S  S  S  S  S  S  S  S  S  S  S  S  S  S  S  S  S
|-(21)--20-19-17-16-17-19-20-19-17-16-17-19-20-19-17----19-17-|
|----------------------------------------------------20-------|
|-------------------------------------------------------------|
|-------------------------------------------------------------|
|-------------------------------------------------------------|
|-------------------------------------------------------------|


   ~~~~~~
                      |-------6-------|
   H       +E   S  S  S  S  S  S  S   S
|--------------------------------13h(15)-|
|-20pb22--(20)-18p17p15s13h15h17---------|
|----------------------------------------|
|----------------------------------------|
|----------------------------------------|
|----------------------------------------|


   |----------9:8----------|  |------6-------|  |---------------13-----------------|
   S  S  S  S  S  S  S  S  S  S  S  S  S  S  S  S  S  S  S  S  S  S  S  S  S  S  S S
|-15p13S12-13-15-17-15-13S12-------15p13p12s10-12p10----------12h13p12p10-------------|
|----------------------------15h17-------------------13p12p10-------------13-12-10S8--|
|-------------------------------------------------------------------------------------|
|-------------------------------------------------------------------------------------|
|-------------------------------------------------------------------------------------|
|-------------------------------------------------------------------------------------|


   |------6-------|  |-------6--------|
   S  S S  T T  S S  S  S  T  T  S S  S  T T  T  T T T T  T T T  T T T T T T
|-------------------------10h12p10p8-----------------------------------------|
|-12-10-8---------8h10h12------------12p10p9-12------------------------------|
|---------10p9h10-------------------------------10p9s7-9h10-9p7--------------|
|---------------------------------------------------------------10p9-7s6-7p6-|
|----------------------------------------------------------------------------|
|----------------------------------------------------------------------------|


                      ~
  |-------9-------|
  S S S S S S S S S S S +S  T T  T T T  T T T  T T T  T T T  T T T  T
|---------------------------------------------------------------------|
|---------------------------------------------------------------------|
|--------------------------------------------------------------7-9-10-|
|------------------------------------------------7-9----7-9-10--------|
|-8p7p5----------------------------7-8----7-8-10-----10---------------|
|-------8p7p5-7-5-4-5s8-(8)-7-8-10-----10-----------------------------|


  |-------9:8-------|
  T T  T T T T  T T T  T T T  T  T T  T  T  T  T  T  T  T  T  T  T  T  T  T  T  T  T  T  T
|--------7-8-7----7-8-10-7-8-10-12-8-10-12-13-10-12-13-10-12-13-15-17-13-15-17-19-15-17-19-|
|-7-8-10-------10--------------------------------------------------------------------------|
|------------------------------------------------------------------------------------------|
|------------------------------------------------------------------------------------------|
|------------------------------------------------------------------------------------------|
|------------------------------------------------------------------------------------------|


            >
   ~~~      ~~~~
   Q.   E  +H
|-20---20-(20)--*|
|---------------*|
|---------------*|
|---------------*|
|---------------*|
|---------------*|



Duration Legend
---------------
W - whole; H - half; Q - quarter; E - 8th; S - 16th; T - 32nd; X - 64th; a - acciaccatura
+ - note tied to previous; . - note dotted; .. - note double dotted
Uncapitalized letters represent notes that are staccato (1/2 duration)
Irregular groupings are notated above the duration line
Duration letters will always appear directly above the note/fret number it represents the
duration for.  Duration letters with no fret number below them represent rests.  Multi-
bar rests are notated in the form Wxn, where n is the number of bars to rest for.  Low
melody durations appear below the staff

Tablature Legend
----------------
 h   - hammer-on
 p   - pull-off
 b   - bend
 pb  - pre-bend
 r   - bend release (if no number after the r, then release immediately)
 /\  - slide into or out of (from/to "nowhere")
 s   - legato slide
 S   - shift slide
 - natural harmonic
[n]  - artificial harmonic
n(n) - tapped harmonic
 ~   - vibrato
 tr  - trill
 T   - tap
 TP  - trem. picking
 PM  - palm muting
\n/  - tremolo bar dip; n = amount to dip
 \n  - tremolo bar down
 n/  - tremolo bar up
/n\  - tremolo bar inverted dip
 =   - hold bend; also acts as connecting device for hammers/pulls
 <> - volume swell (louder/softer)
 x   - on rhythm slash represents muted slash
 o   - on rhythm slash represents single note slash

Misc Legend
-----------
 |  - bar
||  - double bar
||o - repeat start
o|| - repeat end
*|  - double bar (ending)
 :  - bar (freetime)
 $  - Segno
 &  - Coda
Tempo markers -  = BPM(8/16=s8/s16), where s8 = swing 8ths, s16 = swing 16ths





Comments


Popular Yngwie Malmsteen tabs & chords
Beethovens 5th Symphony Bass Tabs
Black Star Bass Tabs
Overture 13 Bass Tabs
Vengeance Bass Tabs
Amberdawn Tabs
Judas Tabs
Marching Out 1 Tabs
On The Run Again 1 Tabs
Paganinis 5th Caprice Tabs
Vengeance Acoustic Intro Tabs


Song lyrics



↑ Back to top | Tablatures and chords are parodies/interpretations of the original songs. You may use it for private study, scholarship, research or language learning purposes only
© 2014 AZChords.com Contact us | Privacy policy | DMCA | Add/correct tabs | Request tabs | Top 50 tabs