>
 >
My Resurrection

My Resurrection Guitar Tabs

Yngwie Malmsteen - My Resurrection chords, tabs, tablatures, lyrics

Guitar lessons | Add/correct | Request | Top 50 tabs Artists:  A B C D E F G H I J K L M N O P Q R S T U V W X Y Z 0-9

My Resurrection Guitar Tabs – Yngwie Malmsteen

CD, Sheet music, Poster

Do you like My Resurrection? Share with your friends now
Bass TabsTabsTabs v2

MY RESURRECTION
As recorded by Yngwie Malmsteen
(From the 1997 Album FACING THE ANIMAL)

        

Music by Yngwie J.Malmsteen

Gtr I (Eb Ab Db Gb Bb Eb) - 'Yngwie J.Malmsteen'
Gtr II (Eb Ab Db Gb Bb Eb) - 'Yngwie J.Malmsteen'
Gtr III (Eb Ab Db Gb Bb Eb) - 'Strings'
Gtr IV (Eb Ab Db Gb Bb Eb) - 'Church Organ'
Gtr V (Eb Ab Db Gb Bb Eb) - 'Choir'

 Intro
  Moderately Q=136
  N.C.        E5     C      Esus4     C/E      E5  C
 2/4         4/4
  Gtr I
                 PM|    PM|   PM--|    ~~~       PM  PM
  Q    Q      E  E E E  E E E E    E   Q.      E E E E
|----------||-------------------|----------------------|
|----------||-------------------|----------------------|
|----------||-------------------|----------------------|
|----------||-9------8------7---|-----10-------9---8---|
|----------||-7------7------7---|------7-------7---7---|
|----/12\--||----0-0----0-0---0-|--0-------------0---0-|
|
| Gtrs III, IV, V
| W           Q.     Q.     Q     +E   E  +Q   Q   Q
|----------||-7------6------5---|-(5)--3--(3)--7---6---|
|----------||-------------------|----------------------|
|----------||-4-----------------|------5--(5)----------|
|----------||--------8----------|----------------------|
|----------||---------------7---|-(7)--3--(3)--9---8---|
|----------||-2------6------5---|-(5)----------7---6---|


  E5       C      Esus4     C/E      E5  C
     PM--|    PM|   PM--|    ~~~       PM  PM
  E  S S E E  E E E E    E   Q.      E E E E
|---------------------|----------------------||
|---------------------|----------------------||
|---------------------|----------------------||
|-9--------8------7---|-----10-------9---8---||
|-7--------7------7---|------7-------7---7---||
|----0-0-0----0-0---0-|--0-------------0---0-||
|
| Q.       Q.     Q     +E   E  +Q   Q   Q
|-7--------6------5---|-(5)--3--(3)--7---6---||
|---------------------|----------------------||
|-4-------------------|------5--(5)----------||
|----------8----------|----------------------||
|-----------------7---|-(7)--3--(3)--9---8---||
|-2--------6------5---|-(5)----------7---6---||


    E5   C5         D5    N.C.
                PM|                                              ~
                            |----6-----| |----6----| |----6----|
    Q.   E  +E  S S  Q      S  S S S S S S S S S S S S S S S S S Q   4x
||----------------------|--------------------------------------------||
||o---------------------|-------------------------------------------o||
||----------------------|----------------5-7-9-7-5-------------------||
||--9----5--(5)------7--|----------5-7-9-----------9-7-5-------------||
||o-7----3--(3)-5-5--5--|---5--7-9-----------------------9-7-5------o||
||----------------------|--------------------------------------8-7---||
|
|   Gtrs III, IV
|   Q.   Q.          Q     +E      E     Q           H               4x
||--7----8----------10--|-(10)---------------------------------------||
||o-8---------------10--|-(10)--------------------------------------o||
||-------9----------11--|-(11)---------------------------------------||
||----------------------|--------------------------------------------||
||o---------------------|-------------------------------------------o||
||----------------------|--------------------------------------------||


   Verse
    $
    C     Em
                 PM--------------------|
     Q.    E +E  E E E   E E E E E E E E
||---------------------|-----------------|
||o--------------------|-----------------|
||---8-----9-(9)-------|-----------------|
||---7-----9-(9)-------|-----------------|
||o--6-----7-(7)-------|-----------------|
||---------------0-0-0-|-0-0-0-0-0-0-0-0-|
|
|    Q.    Q     E Q     W
||--11----12-----------|-----------------|
||o--------------------|-----------------|
||---9----11-----------|-----------------|
||---------------------|-----------------|
||o-------13-----------|-----------------|
||---------------------|-----------------|


  C     E5                               C     E5
               PM--------------------|                PM--|
   Q.    E +E  E E E   E E E E E E E E    Q.    E +E  E E E
|--------------------|-----------------|----------------------|
|--------------------|-----------------|----------------------|
|--8-----9-(9)-------|-----------------|--8-----9-(9)---------|
|--7-----9-(9)-------|-----------------|--7-----9-(9)---------|
|--6-----7-(7)-------|-----------------|--6-----7-(7)---------|
|--------------0-0-0-|-0-0-0-0-0-0-0-0-|--------------0-0-0---|
|
|  Q.    Q     E Q     W                  Q.    Q     E Q
|-------12-----------|-----------------|-11----12-------------|
|-11----12-----------|-----------------|-------12-------------|
|-14-----------------|-----------------|--9-------------------|
|-------12-----------|-----------------|-------12-------------|
|--------------------|-----------------|----------------------|
|--------------------|-----------------|----------------------|


  D#m6  G/D                  Fm6   A/E
               PM--------|                PM--------|
   Q.    E +E  S S S S S S    Q.    E +E  S S S S S S
|--------------------------|--------------------------|
|--------------------------|--------------------------|
|--5-----4-(4)-------------|--7-----6-(6)-------------|
|--4-----5-(5)-5-5-5-5-5-5-|--6-----7-(7)-------------|
|--6-----5-(5)-------------|--8-----7-(7)-7-7-7-7-7-7-|
|--------------------------|--------------------------|
|
|  Q.    Q     E   Q          Q.    Q     E   Q
|-11----15-----------------|-16----17-----------------|
|-14----12-----------------|-18-----------------------|
|-------14-----------------|-------16-----------------|
|-12-----------------------|-19----19-----------------|
|--------------------------|--------------------------|
|--------------------------|--------------------------|


  Gm6   B/F#          C5          N.C.
                                  PM------------|
   Q.    E +Q    Q     W          e e e e e e e e
|-------------------|-----------|------------------||
|--5-----4-(4)---5--|-----------|-----------------o||
|--3-----4-(4)------|--5--------|------------------||
|--5-----4-(4)------|--5--------|------------------||
|-------------------|--3--------|-3-2---3-2-------o||
|-------------------|-----------|-----5-----5-3-2--||
|
|  Q.    Q     E Q     W          W
|-18----14----------|-20--------|------------------||
|-20----19----------|-----------|-----------------o||
|-21----------------|-16--------|------------------||
|-------16----------|-15--------|------------------||
|-------------------|-18--------|-----------------o||
|-------------------|-----------|------------------||


   Pre-Chorus
    $$
    E5                      D5         G        B5     C5
                      PM--|
      Q.   E +H       E E E E +H       H    +E  Q.     H.      E E
||---------0-(0)----|----------------|---------------|--------------|
||o--------0-(0)----|----------------|---------------|--------------|
||---------0-(0)----|-------2-(2)----|-4----(4)------|--------------|
||----2-------------|-------0-(0)----|-5----(5)-4----|-5------------|
||o---2-------------|----------------|-5----(5)-2----|-3-------3-2--|
||----0-------------|-2-2-2----------|-3----(3)------|--------------|
|
|   Gtr II
|     ~~~~
|     W               W                W               W
||--(21)------------|----------------|---------------|--------------|
||o-----------------|----------------|---------------|--------------|
||------------------|----------------|---------------|--------------|
||------------------|----------------|---------------|--------------|
||o-----------------|----------------|---------------|--------------|
||------------------|----------------|---------------|--------------|


                     To Dbl. Coda
  A5               N.C.            B5
                   ~~                PM|   PM|   PM------------------------|
                                                     |-3-| |-3-| |-3-| |-3-|
  Q.   E +Q   Q    Q.   E +H       E E E E E E E E   E E E E E E E E E E E E
|----------------|------6-(6)----|-----------------|--------------------------||
|----------------|------7-(7)----|-----------------|-------------------------o||
|------2-(2)--2--|------6-(6)----|-----------------|--------------------------||
|-2----2-(2)--2--|---------------|-4-----4-----4---|--------------------------||
|-0----0-(0)--0--|-1-------------|-2-2-2-2-2-2-2-2-|-2-2-2-2-2-2-2-3-2-------o||
|----------------|---------------|-----------------|-------------------5-3-2--||
|
|                                                    |-3-| |-3-| |-3-| |-3-|
| W                W               W                 E E E E E E E E E E E E
|----------------|---------------|-----------------|--------------------------||
|----------------|---------------|-----------------|-------------------------o||
|----------------|---------------|-----------------|-4-5-4-2---4-2------------||
|----------------|---------------|-----------------|---------5-----5-4-2------||
|----------------|---------------|-----------------|---------------------4-2-o||
|----------------|---------------|-----------------|--------------------------||


   Chorus
               To Coda                          D.S. al Coda
    E5   C5        D5   N.C.
               PM|                                          ~
                        |----6----| |----6----| |----6----|
    Q.   E +E  S S Q    S S S S S S S S S S S S S S S S S S Q   4x
||--------------------|-----------------------------------------||
||o-------------------|----------------------------------------o||
||--------------------|-------------5-7-9-7-5-------------------||
||--9----5-(5)-----7--|-------5-7-9-----------9-7-5-------------||
||o-7----3-(3)-5-5-5--|-5-7-9-----------------------9-7-5------o||
||--------------------|-----------------------------------8-7---||


  &
  N.C.
                                      ~
  |----6----| |----6----| |----6----|
  S S S S S S S S S S S S S S S S S S Q
|------------------------------------------||
|------------------------------------------||
|-------------5-7-9-7-5--------------------||
|-------5-7-9-----------9-7-5--------------||
|-5-7-9-----------------------9-7-5--------||
|-----------------------------------8-7----||


 Breakdown
  Bsus4                   B
  Gtr I
   Q   E  E  +E   E  Q     Q   E  E  +E   E  Q
|-12--------------------|-11--------------------|
|--------12-(12)----12--|--------12-(12)--------|
|-----11---------11-----|-----11------------11--|
|-----------------------|----------------13-----|
|-----------------------|-----------------------|
|-----------------------|-----------------------|
|
| Gtr II
|  W                       W
|-----------------------|-----------------------|
|--5--------------------|--4--------------------|
|--4--------------------|--4--------------------|
|--4--------------------|--4--------------------|
|--2--------------------|--2--------------------|
|-----------------------|-----------------------|


  C#sus4               C#
  E  E E E +E   E Q     Q   E  E  +E   E   Q
|--------9-(9)-------|-13---------------------||
|-9----9----------9--|--------14-(14)-----14--||
|---11---------11----|-----13---------13------||
|--------------------|------------------------||
|--------------------|------------------------||
|--------------------|------------------------||
|
| W                     H         +E   Q.
|--------------------|------------------------||
|-7------------------|--6---------(6)---------||
|-6------------------|--6---------(6)--x\-----||
|-6------------------|--6---------(6)--x\-----||
|-4------------------|--4---------(4)--x\-----||
|--------------------|------------------------||


 Interlude
  (F#)
                                                                               ~~
   S S  S  S  S S  S S  S S  S  S  S S  S S    S S  S  S S  S  S S  S  S S  S  Q
|-14p9----------9-13p9-14p9----------9-13p9-|-14p9-10----9-----------------------------|
|------10----10-------------10----10--------|---------12---10-12-9-10----9-------------|
|---------11-------------------11-----------|-------------------------11---10-11-------|
|-------------------------------------------|------------------------------------------|
|-------------------------------------------|------------------------------------------|
|-------------------------------------------|------------------------------------------|
|
|  PM-----------------------------------------------------------------------------------
|  S S  S  S  S S  S S  S S  S  S  S S  S S    S S  S  S S  S  S S  S  S S  S  S S S S
|-------------------------------------------|------------------------------------------|
|-------------------------------------------|------------------------------------------|
|-------------------------------------------|------------------------------------------|
|-------------------------------------------|------------------------------------------|
|-------------------------------------------|------------------------------------------|
|--2-2--2--2--2-2--1-1--2-2--2--2--2-2--1-1-|--2-2--4--4-5--5--4-4--2--2-1--1--2-2-2-2-|


   S S  S  S  S S  S S  S S  S  S  S S  S S
|-14p9----------9-13p9-14p9----------9-13p9----|
|------10----10-------------10----10-----------|
|---------11-------------------11--------------|
|----------------------------------------------|
|----------------------------------------------|
|----------------------------------------------|
|
|-----------------------------------------|
|  S S  S  S  S S  S S  S S  S  S  S S  S S
|----------------------------------------------|
|----------------------------------------------|
|----------------------------------------------|
|----------------------------------------------|
|----------------------------------------------|
|--2-2--2--2--2-2--1-1--2-2--2--2--2-2--1-1----|


                                             (B)
                                   ~~
   S S  S  S S  S  S S  S  S S  S  Q          S S S S S S S S  S S S S S S  S S
|-14p9-10----9-----------------------------|-10p7-------7-9p7-10p7-------7-12p7-|
|---------12---10-12-9-10----9-------------|------7---7------------7---7--------|
|-------------------------11---10-11-------|--------7----------------7----------|
|------------------------------------------|------------------------------------|
|------------------------------------------|------------------------------------|
|------------------------------------------|------------------------------------|
|
|  PM----------------------------------------------------------------------------
|  S S  S  S S  S  S S  S  S S  S  S S S S    S S S S S S S S  S S S S S S  S S
|------------------------------------------|------------------------------------|
|------------------------------------------|------------------------------------|
|------------------------------------------|------------------------------------|
|------------------------------------------|------------------------------------|
|------------------------------------------|--2-2-2-2-2-2-1-1--2-2-2-2-2-2--4-4-|
|--2-2--4--4-5--5--4-4--2--2-1--1--2-2-2-2-|------------------------------------|


  (D)
   S  S  S  S  S  S  S  S  S  S  S  S  S  S  S  S
|-14p10----------10-12p10-14p10----------10-14p10----|
|-------10----10----------------10----10-------------|
|----------11----------------------11----------------|
|----------------------------------------------------|
|----------------------------------------------------|
|----------------------------------------------------|
|
|----------------------------------------------|
|  S  S  S  S  S  S  S  S  S  S  S  S  S  S  S  S
|----------------------------------------------------|
|----------------------------------------------------|
|----------------------------------------------------|
|--------------------------------------------3--3----|
|--5--5--5--5--5--5--4--4--5--5--5--5--5--5----------|
|----------------------------------------------------|


   S S  S  S  S S  S S  S S  S  S  S S  S S
|-14p9----------9-13p9-14p9----------9-13p9-|
|------10----10-------------10----10--------|
|---------11-------------------11-----------|
|-------------------------------------------|
|-------------------------------------------|
|-------------------------------------------|
|
|  PM-------------|     ~~~
|  S S  S  S  S S  E    H
|-------------------------------------------|
|-------------------------------------------|
|-------------------------------------------|
|--4-4--4--4--4-4--3----4-------------------|
|-------------------------------------------|
|-------------------------------------------|


  N.C.
                                                                     ~
   S S  S  S S  S  S S  S  S S  S  S  S  S  S    S S  S  S S  S  S S H
|-14p9-10----9--------------------------------|---------------------------||
|---------12---10-12-9-10----9----------------|---------------------------||
|-------------------------11---10-11----10----|---------------------------||
|------------------------------------12----11-|-12-9-11----9--------------||
|---------------------------------------------|---------12---12-11-8-9----||
|---------------------------------------------|---------------------------||
|
|                                                                    ~
|  S S  S  S S  S  S S  S  S S  S  S  S  S  S    S S  S  S S  S  S S H
|---------------------------------------------|---------------------------||
|---------------------------------------------|---------------------------||
|---------------------------------------------|---------------------------||
|--4-------------------------------4-----3----|---------------------------||
|----4--5--2-4-----2------------------5-----4-|--5-2--4----2--------------||
|---------------5----4--5--2-4--1-------------|----------5----5--4-1-2----||


 Guitar Solo
  F#m
                                      ~~~
   |------6-------|
   S  S  S  S  S  S  H     +S   S  S  S
|-------------------14----(14)h16p12-14-|
|----------14-15-17---------------------|
|----14-16------------------------------|
|-16------------------------------------|
|---------------------------------------|
|---------------------------------------|
|
| Gtr III
|  W
|---------------------------------------|
|---------------------------------------|
|--6------------------------------------|
|--7------------------------------------|
|--9------------------------------------|
|---------------------------------------|


                                 D/F#
 ~~~~~~                                        ~~~
              |------6-------|
   +H     Q   S  S  S  S  S  S    Q.      +E   Q.     E
|-(14)-------------------------|------------------------|
|---------------------14h15h17-|-17b19---(17)-14----/12-|
|------------13h14h16----------|------------------------|
|------------------------------|------------------------|
|------------------------------|------------------------|
|------------------------------|------------------------|
|
|  +W                             W
|------------------------------|------------------------|
|------------------------------|------------------------|
|--(6)-------------------------|--7---------------------|
|--(7)-------------------------|--7---------------------|
|--(9)-------------------------|--9---------------------|
|------------------------------|------------------------|


                                              ~~~
   |-----5-----|   |-3--|  |----5----|
   S   S S  S  S E S  S S  S S  S S  S  S  S  E
|----------------9-9-10-9-----------------------|
|-12--10-9-10-12----------10-9----9-10-12-10s12-|
|------------------------------11---------------|
|-----------------------------------------------|
|-----------------------------------------------|
|-----------------------------------------------|
|
| +W
|-----------------------------------------------|
|-----------------------------------------------|
|-(7)-------------------------------------------|
|-(7)-------------------------------------------|
|-(9)-------------------------------------------|
|-----------------------------------------------|


  Bm/D
 ~~~~~~                                       ~~~~
                |--3--|  |------6-------|
   +H      +E   S  S  S  S  S  S  S  S  S     W
|-----------------------------------------|---------|
|-(12)----(12)----------12-14-------12-14-|--15-----|
|--------------11-13-14-------13-14-------|---------|
|-----------------------------------------|---------|
|-----------------------------------------|---------|
|-----------------------------------------|---------|
|
|   W                                        +W
|-----------------------------------------|---------|
|-----------------------------------------|---------|
|-----------------------------------------|---------|
|---9-------------------------------------|--(9)----|
|---9-------------------------------------|--(9)----|
|--10-------------------------------------|-(10)----|


  Em/Ab
                                                        ~~~~
   |------6-------|  |------6-------|  |------7-------|
   S  S  S  S  S  S  S  S  S  S  S  S  S S  S  S S S  S Q
|-17-16-14-13----------------------------------------------|
|-------------15-14-12-------------------------------------|
|----------------------14-13-11-10-------------------------|
|----------------------------------12-11-9-----------------|
|------------------------------------------12-11-9-8-------|
|----------------------------------------------------10-9--|
|
|  W
|----------------------------------------------------------|
|----------------------------------------------------------|
|-12-------------------------------------------------------|
|-14-------------------------------------------------------|
|-14-------------------------------------------------------|
|-16-------------------------------------------------------|


                                         F#m
 ~~~~~~                                   ~~~
                              |--3---|
   +Q    a      +H      +E   +S   S  S    H.       +S   S E
|--------------------------------------|--------------------|
|--------------------------------------|--------------------|
|-------14b16==(14)----(14)r(14)p13h14p|=13-------(13)-13s9-|
|--------------------------------------|--------------------|
|--------------------------------------|--------------------|
|--(9)---------------------------------|--------------------|
|
|  +W                                     W
|--------------------------------------|--------------------|
|--------------------------------------|--------------------|
|-(12)---------------------------------|--6-----------------|
|-(14)---------------------------------|--7-----------------|
|-(14)---------------------------------|--9-----------------|
|-(16)---------------------------------|--------------------|


                          D/F#
   ~~~                    ~~~~~~~
                                   |----6-----|
   H.      a  a E E    a  H    E E S S S S S  S
|-------------------|---------------------------|
|-------------------|--------------------7-9-10-|
|-------------------|--------------6-7-9--------|
|-11-------9h10p9s7-|-(7)s9----9-7--------------|
|-------------------|---------------------------|
|-------------------|---------------------------|
|
| +W                      W
|-------------------|---------------------------|
|-------------------|---------------------------|
|-(6)---------------|-----7---------------------|
|-(7)---------------|-----7---------------------|
|-(9)---------------|-----9---------------------|
|-------------------|---------------------------|


               |-----6------|  |------6------|  |------6-------|
   S   S  S S  S  S S  S  S S  S  S S  S  S  S  S  S  S  S  S  S
|-----------9-------9-10----9-10-12-9-10-12-14-10-12-14-16-12-14---|
|--9--10-12---10-12------12----------------------------------------|
|------------------------------------------------------------------|
|------------------------------------------------------------------|
|------------------------------------------------------------------|
|------------------------------------------------------------------|
|
| +W
|------------------------------------------------------------------|
|------------------------------------------------------------------|
|-(7)--------------------------------------------------------------|
|-(7)--------------------------------------------------------------|
|-(9)--------------------------------------------------------------|
|------------------------------------------------------------------|


  Bm/D
                                                  ~~~~
   |------6-------|  |------6-------|
   S  S  S  S  S  S  S  S  S  S  S  S  S  E.     +Q
|-16-17-14-16-17-19-16-17-19-21-17-19-21-21b22==(21)--|
|-----------------------------------------------------|
|-----------------------------------------------------|
|-----------------------------------------------------|
|-----------------------------------------------------|
|-----------------------------------------------------|
|
|  W
|-----------------------------------------------------|
|-----------------------------------------------------|
|-----------------------------------------------------|
|--9--------------------------------------------------|
|--9--------------------------------------------------|
|-10--------------------------------------------------|


                                                  Em/Ab
                                             ~~~~~~~~~~
            |--3--|     |--3--|
   +S    S  S  S  S  E  S  S  S  S  S  S  S  Q     +Q    E  E  E  E  E  S  S
|-(21)r-17-16-17-19-21-19-21-19-17-16-17-19-21--|-(21)--17-16-17----------16--|
|-----------------------------------------------|----------------19-18-19-----|
|-----------------------------------------------|-----------------------------|
|-----------------------------------------------|-----------------------------|
|-----------------------------------------------|-----------------------------|
|-----------------------------------------------|-----------------------------|
|
|  +W                                               W
|-----------------------------------------------|-----------------------------|
|-----------------------------------------------|-----------------------------|
|-----------------------------------------------|--12-------------------------|
|--(9)------------------------------------------|--14-------------------------|
|--(9)------------------------------------------|--14-------------------------|
|-(10)------------------------------------------|--16-------------------------|


                                                    C#sus4
                                               ~~~~~~~~~~~~~~~
    |-------6-------|  |------6------|
    S   S  S  S  S  S  S  S  S  S  S S  E  S S Q    W
|-------------------------------------------------|-9--------|
|--18--19-18-15-14--------------------------------|----------|
|------------------16-10-11-10--------------------|----------|
|------------------------------12-11-9-12-11-9-8--|----------|
|-------------------------------------------------|----------|
|-------------------------------------------------|----------|
|
|                                                   Gtr II
|  +W                                               W
|-------------------------------------------------|----------|
|-------------------------------------------------|-7--------|
|-(12)--------------------------------------------|-6--------|
|-(14)--------------------------------------------|-6--------|
|-(14)--------------------------------------------|-4--------|
|-(16)--------------------------------------------|----------|


                                       D.S.S. al Dbl. Coda
  C#     G#              Bsus4           B
                           \2/
 ~~~~~                     ~~~~~~~~~~~~~~~~~~~
          |-3-| |-3--|
  +H      E E E E E  E     W              H..        a     +E
|-(9)----11p8-------11-|---------------|-19---------21b24-(21)---||
|-------------9---9----|-/12-----------|-------------------------||
|---------------8------|---------------|-------------------------||
|----------------------|---------------|-------------------------||
|----------------------|---------------|-------------------------||
|----------------------|---------------|-------------------------||
|
|  H      Q     Q          H..       E    W
|----------------------|-------------2-|-------------------------||
|--6------4-----4------|---5-----------|--4----------------------||
|--6------5-----5------|---4-----------|--4----------------------||
|--6------6-----6------|---4-----------|--4----------------------||
|--4-------------------|---2-----------|--2----------------------||
|----------------------|---------------|-------------------------||


                                        Outro
  &&
                                                E5       C     Esus4
  Gtr I
  PM---------------------|   ~                       PM|   PM|   PM-
  E. S E E +S  S S S E S S   W                    E  E E E E E E E
|--------------------------|----------||---------------------------|
|--------------------------|----------||---------------------------|
|--------------------------|-4--------||---------------------------|
|--------------------------|----------||----------9------8-----7---|
|-2--2-2-2-(2)-2-2-2-2-2-2-|----------||----------7------7-----7---|
|--------------------------|----------||-------------0-0---0-0---0-|
|
|                                        Gtr II
|                                                 ~~~~
| W                          W            a      +W
|--------------------------|----------||-20b22==(20)---------------|
|--------------------------|----------||---------------------------|
|--------------------------|----------||---------------------------|
|--------------------------|----------||---------------------------|
|--------------------------|----------||---------------------------|
|--------------------------|----------||---------------------------|


              C/E            E5           C
 -|                PM|            PM                    PM
    E           E  E E         E  E         E           E
|-----------------------------------------------------------|
|-----------------------------------------------------------|
|-----------------------------------------------------------|
|--------------10--------------9------------8---------------|
|---------------7--------------7------------7---------------|
|---0--------------0-0------------0---------------------0---|
|
|               ~~~~           ~~~~                     ~~~~
|  +E    a     +Q.      a     +Q     a     +E   a      +E
|-(20)r-20b22-(20)-----20b22-(20)---20b22-(20)-20b22==(20)--|
|-----------------------------------------------------------|
|-----------------------------------------------------------|
|-----------------------------------------------------------|
|-----------------------------------------------------------|
|-----------------------------------------------------------|


  E5        C     Esus4
        PM|   PM|            PM--
    E   E E E E E E          E
|-------------------------------|
|-------------------------------|
|-------------------------------|
|---9-------8-----7-------------|
|---7-------7-----7-------------|
|-------0-0---0-0------------0--|
|
|   ~~~~~                    ~~~~
|  +H..              a      +E
|-(20)r-------------20b22==(20)-|
|-------------------------------|
|-------------------------------|
|-------------------------------|
|-------------------------------|
|-------------------------------|


        C/E     E5         C             E5           C     Esus4
 -|        PM|        PM          PM            PM|     PM|   PM
    E    E E  E  E    E     E     E       E     E  E  E E E E E
|--------------------------------------|-------------------------|
|--------------------------------------|-------------------------|
|--------------------------------------|-------------------------|
|-------10-------9----------8----------|--9-----------8-----7----|
|--------7-------7----------7----------|--7-----------7-----7----|
|---0------0--0-------0-----------0----|--------0--0----0-0---0--|
|
|                                                  ~~~
|                |---3---|
|  +Q.        E  E  E    E  S  S  S  S    S  S  E  H.
|-(20)r------20-19-18---17-15-19-17-15-|-17-15-------------------|
|--------------------------------------|-------17-17-------------|
|--------------------------------------|-------------------------|
|--------------------------------------|-------------------------|
|--------------------------------------|-------------------------|
|--------------------------------------|-------------------------|


         C/E              E5  C           E5     C     Esus4
    PM               PM-|   PM       PM      PM|   PM|   PM-
    E     E          E  E E E   E    E     E E E E E E E E
|---------------------------------------|------------------|
|---------------------------------------|------------------|
|---------------------------------------|------------------|
|--------10---------------9-----8-------|--9-----8-----7---|
|---------7---------------7-----7-------|--7-----7-----7---|
|---0----------------0--0---0--------0--|----0-0---0-0---0-|
|
|                    ~~~~                  ~~
|   |---3----|
|   E  E     E      +H         +E   +E     W
|-----------14b15==(14)-------(14)r(14)-|-14---------------|
|-----17--------------------------------|------------------|
|-/16-----------------------------------|------------------|
|---------------------------------------|------------------|
|---------------------------------------|------------------|
|---------------------------------------|------------------|


        C/E               E5          C
 -|            PM---|            PM          PM
   E     E     E     E     E     E     E     E
|-------------------------------------------------||
|-------------------------------------------------||
|-------------------------------------------------||
|-------10-----------------9-----------8----------||
|--------7-----------------7-----------7----------||
|--0-----------0-----0-----------0-----------0----||
|
|  S  S  S  S  S  S  S  S  S  S  S  S  S  S  S  S
|-------------------------------------------------||
|-12h13p12p11-12h13p12p11-12h13p12p11-12h13p12p11-||
|-------------------------------------------------||
|-------------------------------------------------||
|-------------------------------------------------||
|-------------------------------------------------||


  E5    C5            D5
                 PM|
   Q.    E  +E   S  S  Q
|-------------------------------|
|-------------------------------|
|-------------------------------|
|--9-----5--(5)--------7--------|
|--7-----3--(3)--5--5--5--------|
|-------------------------------|
|
|  ~~~
|  Q.    E  +E   S  S  E   a  E
|-------------------------------|
|-12----------------------------|
|-------12-(12)-11h12p11-(11)s9-|
|-------------------------------|
|-------------------------------|
|-------------------------------|


  N.C.
                                        ~~
  |----6-----| |----6----| |----6----|
  S  S S S S S S S S S S S S S S S S S  Q
|-----------------------------------------------------------|
|-----------------------------------------------------------|
|--------------5-7-9-7-5------------------------------------|
|--------5-7-9-----------9-7-5------------------------------|
|-5--7-9-----------------------9-7-5------------------------|
|------------------------------------8--7-------------------|
|
| ~~
|                                       |--------7--------|
| H.                                    S  S  S  S  S  S  S
|-----------------------------------------------------------|
|-----------------------------------------------------------|
|-9---------------------------------------------16-17-16-14-|
|--------------------------------------14-16-17-------------|
|-----------------------------------------------------------|
|-----------------------------------------------------------|


  E5                          C5               D5
                                           PM|
   Q.                          E       +E  S S  Q
|--------------------------------------------------|
|--------------------------------------------------|
|--------------------------------------------------|
|--9---------------------------5-------(5)------7--|
|--7---------------------------3-------(3)-5-5--5--|
|--------------------------------------------------|
|
|                                               ~~~~
|  |-------6-------|  |------6-------|
|  S   S  S  S  S  S  S  S  S  S  S  S  Q       Q
|-----------------15-17-------17-19-20-19------17--|
|--------15-17-19-------19-20----------------------|
|-16--17-------------------------------------------|
|--------------------------------------------------|
|--------------------------------------------------|
|--------------------------------------------------|


  N.C.
                                                          ~~
    |----6-----| |-----6------|  |----------6----------|
    S  S S S S S S S S  S  S  S  S S    S    S    S    S  Q
|--------------------------------------------------------------------|
|--------------------------------------------------------------------|
|----------------5-7-9--7--5-----------------------------------------|
|----------5-7-9--------------9--7-5---------------------------------|
|---5--7-9------------------------------9----7----5------------------|
|------------------------------------------------------8--7----------|
|
|~~~~~~
|                       |--3--|  |---------5---------|
|  +Q.                  S  S  S  S    S    S    S    S    S  S  S  S
|-(17)-----------------14h17p14----------------14---15---17-14-15-17-|
|-------------------------------15--------15-------------------------|
|------------------------------------14------------------------------|
|--------------------------------------------------------------------|
|--------------------------------------------------------------------|
|--------------------------------------------------------------------|


  E5    C5        D5
              PM|
   Q.   E +E  S S Q
|--------------------|
|--------------------|
|--------------------|
|--9----5-(5)-----7--|
|--7----3-(3)-5-5-5--|
|--------------------|
|
|  ~~~
|  W
|-19-----------------|
|--------------------|
|--------------------|
|--------------------|
|--------------------|
|--------------------|


         N.C.
                                                             ~~~~
           |----6-----| |------6------| |----6----|
           S  S S S S S S S S   S   S S S S S S S S          Q
|-----------------------------------------------------------------|
|-----------------------------------------------------------------|
|-----------------------5-7-9---7---5-----------------------------|
|-----------------5-7-9---------------9-7-5-----------------------|
|----------5--7-9---------------------------9-7-5-----------------|
|-------------------------------------------------8----------7----|
|
|          ~~~~
|  a      +Q.                  +Q.                   a      +Q
|-21b22==(21)-----------------(21)r-----------------21b24==(21)---|
|-----------------------------------------------------------------|
|-----------------------------------------------------------------|
|-----------------------------------------------------------------|
|-----------------------------------------------------------------|
|-----------------------------------------------------------------|


  E5      C5                     D5
                       PM---|
    Q.    E +E         S    S     Q
|--------------------------------------------------|
|--------------------------------------------------|
|--------------------------------------------------|
|---9-----5-(5)-------------------7----------------|
|---7-----3-(3)--------5----5-----5----------------|
|--------------------------------------------------|
|
|            |--------6--------|  |------6-------|
|  +H        S   S  S  S  S    S  S  S  S  S  S  S
|-(21)r-----19--17-15-14-17---15-14-12-15-14-12-10-|
|--------------------------------------------------|
|--------------------------------------------------|
|--------------------------------------------------|
|--------------------------------------------------|
|--------------------------------------------------|


  N.C.
                                                 ~
   |------6-------|  |-----6------| |----6-----|
   S  S  S  S  S  S  S  S  S S  S S S S S  S S S Q
|----------------------------------------------------------|
|----------------------------------------------------------|
|--------------------5--7--9-7--5--------------------------|
|-----------5--7--9---------------9-7-5--------------------|
|--5--7--9------------------------------9--7-5-------------|
|----------------------------------------------8-7---------|
|
|  |------6-------|  |-----6------| |----6-----| |---5---|
|  S  S  S  S  S  S  S  S  S S  S S S S S  S S S S S S S S
|-14-12-10----------10-12-10-8-10-8-7-8-7------------------|
|----------13-12-10-----------------------10-8-7-------7-5-|
|------------------------------------------------9-7-5-----|
|----------------------------------------------------------|
|----------------------------------------------------------|
|----------------------------------------------------------|


  E5          C5          D5
      PM----|     PM----|
  E   S S S S E   S S S S Q
|----------------------------|
|----------------------------|
|----------------------------|
|-9-----------5-----------7--|
|-7-----------3-----------5--|
|-----0-0-0-0-----0-0-0-0----|
|
| S S S S S S S S S S S S Q
|----------------------------|
|----------------------------|
|-7-5-4----------------------|
|-------7-5-4----------------|
|-------------7-5-3-2--------|
|---------------------5-3-0--|


  N.C.
                                                   ~~
   |----6-----| |------6------|  |------6-------|
   S  S S S S S S S S  S S    S  S  S  S  S  S  S  Q
|----------------------------------------------------------------------|
|----------------------------------------------------------------------|
|---------------5-7-9--7-5---------------------------------------------|
|---------5-7-9---------------9--7--5----------------------------------|
|--5--7-9------------------------------9--7--5-------------------------|
|-----------------------------------------------8--7-------------------|
|
|                                |------6-------|  |--3--|
| +Q            E      S    S    S  S  S  S  S  S  S  S  S  S      +S
|----------------------------------------------------14-15-17b19==(17)-|
|----------------------------------------13-14-15-17-------------------|
|-------------------------------12-14-16-------------------------------|
|---------------------14---16------------------------------------------|
|----------------------------------------------------------------------|
|-(0)------------------------------------------------------------------|


  E5           C5               D5
       PM----|     PM---------|
    E  S S S S E   S  S S     S Q
|------------------------------------|
|------------------------------------|
|------------------------------------|
|---9----------5----------------7----|
|---7----------3----------------5----|
|------0-0-0-0-----0--0-0-----0------|
|
|                  |-------3-------|
|  +H             +Q       Q       Q
|-(17)-----------(17)-----17r-----17-|
|------------------------------------|
|------------------------------------|
|------------------------------------|
|------------------------------------|
|------------------------------------|


  N.C.
                                                      ~~
   |----6-----|  |--------6---------|  |-----6-----|
   S S S  S S S  S S S         S  S S  S S  S S  S S  Q
|-------------------------------------------------------------|
|-------------------------------------------------------------|
|----------------5-7-9---------7--5---------------------------|
|---------5-7-9---------------------9--7-5--------------------|
|--5-7-9------------------------------------9-7--5------------|
|--------------------------------------------------8--7-------|
|
|                                      |----3----|    |--3--|
|  E      E      E      a     +E       E    E    E    E  E  E
|-17------------17--------------------------------------------|
|--------20------------20b22-(20)-----20---17--------17-20-17-|
|-----------------------------------------------16------------|
|-------------------------------------------------------------|
|-------------------------------------------------------------|
|-------------------------------------------------------------|


  E5           C5        D5
       PM----|   PM----|
    E  S S S S E S S S S  Q
|---------------------------------|
|---------------------------------|
|---------------------------------|
|---9----------5----------7-------|
|---7----------3----------5-------|
|------0-0-0-0---0-0-0-0----------|
|
|   ~~~~
|                         |--3--|
|  +H            Q        E  E  E
|---------------------------------|
|-(17)----------------------------|
|------------------------17-15-15-|
|---------------------------------|
|---------------------------------|
|---------------------------------|


  N.C.
                                            ~~
   |----6----| |----6----|  |-----6------|
   S S S S S S S S S S S S  S S S  S  S  S  Q
|-------------------------------------------------------------|
|-------------------------------------------------------------|
|--------------5-7-9-7-5--------------------------------------|
|--------5-7-9-----------9--7-5-------------------------------|
|--5-7-9------------------------9--7--5-----------------------|
|----------------------------------------8--7-----------------|
|
|  ~~
|                                  |--3--|  |------6-------|
|  H                        E      S  S  S  S  S  S  S  S  S
|-------------------------------------------------------------|
|--------------------------12-----------12-13-12----------12--|
|-14------------------------------12-14----------14-12-14-----|
|-------------------------------------------------------------|
|-------------------------------------------------------------|
|-------------------------------------------------------------|


  E5                          C5                          D5
   Q.                          E       +Q                  Q
|-------------------------------------------------------------------|
|-------------------------------------------------------------------|
|-------------------------------------------------------------------|
|--9---------------------------5-------(5)-----------------7--------|
|--7---------------------------3-------(3)-----------------5--------|
|-------------------------------------------------------------------|
|
|  |-------6-------|  |------6-------|  |-------6-------|
|  S   S  S  S  S  S  S  S  S  S  S  S  S   S  S  S  S  S  T  T  E.
|---------------------------------------------12--------------------|
|-13--12----------12-13-12----------12-13--15----15-13-12-----------|
|--------14-12-14----------14-12-14-----------------------14p12s11--|
|-------------------------------------------------------------------|
|-------------------------------------------------------------------|
|-------------------------------------------------------------------|


                                                                E5
   +W                           +W                                Q   Q  H
|----------------------------|--------------------------|---------------------*|
|----------------------------|--------------------------|---------------------*|
|----------------------------|--------------------------|---------------------*|
|--(7)-----------------------|--(7)---------------------|---------9-----------*|
|--(5)-----------------------|--(5)---------------------|---------7-----------*|
|----------------------------|--------------------------|---------0-----------*|
|
|                       \2/                   \2/
|                                ~~~~~~~~~~~        ~~~~
|  +E   E  E  E  E  E  +Q       +H      +E    E    +Q      a     +H      H
|----------------------------|--------------/14---(14)--|-15b17-(15)----------*|
|------------12-13-15-(15)---|-(15)----(15)-------------|---------------------*|
|-(11)-12-14-----------------|--------------------------|---------------------*|
|----------------------------|--------------------------|---------------------*|
|----------------------------|--------------------------|---------------------*|
|----------------------------|--------------------------|---------------------*|



Duration Legend
---------------
W - whole; H - half; Q - quarter; E - 8th; S - 16th; T - 32nd; X - 64th; a - acciaccatura
+ - note tied to previous; . - note dotted; .. - note double dotted
Uncapitalized letters represent notes that are staccato (1/2 duration)
Irregular groupings are notated above the duration line
Duration letters will always appear directly above the note/fret number it represents the
duration for.  Duration letters with no fret number below them represent rests.  Multi-
bar rests are notated in the form Wxn, where n is the number of bars to rest for.  Low
melody durations appear below the staff

Tablature Legend
----------------
 h   - hammer-on
 p   - pull-off
 b   - bend
 pb  - pre-bend
 r   - bend release (if no number after the r, then release immediately)
 /\  - slide into or out of (from/to "nowhere")
 s   - legato slide
 S   - shift slide
 - natural harmonic
[n]  - artificial harmonic
n(n) - tapped harmonic
 ~   - vibrato
 tr  - trill
 T   - tap
 TP  - trem. picking
 PM  - palm muting
\n/  - tremolo bar dip; n = amount to dip
 \n  - tremolo bar down
 n/  - tremolo bar up
/n\  - tremolo bar inverted dip
 =   - hold bend; also acts as connecting device for hammers/pulls
 <> - volume swell (louder/softer)
 x   - on rhythm slash represents muted slash
 o   - on rhythm slash represents single note slash

Misc Legend
-----------
 |  - bar
||  - double bar
||o - repeat start
o|| - repeat end
*|  - double bar (ending)
 :  - bar (freetime)
 $  - Segno
 &  - Coda
Tempo markers -  = BPM(8/16=s8/s16), where s8 = swing 8ths, s16 = swing 16ths





Comments


Popular Yngwie Malmsteen tabs & chords
Beethovens 5th Symphony Bass Tabs
Little Savage Bass Tabs
Bedroom Eyes Tabs
Blitzkrieg Tabs
Braveheart Tabs
Demon Driver 1 Tabs
Now Your Ships Are Burned Tabs
Rising Force 3 Tabs
Soldier Without Faith Tabs
Spasebo Blues Tabs


Song lyrics



↑ Back to top | Tablatures and chords are parodies/interpretations of the original songs. You may use it for private study, scholarship, research or language learning purposes only
© 2014 AZChords.com Contact us | Privacy policy | DMCA | Add/correct tabs | Request tabs | Top 50 tabs