>
 >
Let The Good Times Roll

Let The Good Times Roll Bass Tabs

Yngwie Malmsteen - Let The Good Times Roll chords, tabs, tablatures, lyrics

Guitar lessons | Add/correct | Request | Top 50 tabs Artists:  A B C D E F G H I J K L M N O P Q R S T U V W X Y Z 0-9

Let The Good Times Roll Bass Tabs – Yngwie Malmsteen

CD, Sheet music, Poster

Do you like Let The Good Times Roll? Share with your friends now
Bass Tabs
Song : Let the good times roll

Artist : Yngwie Malmsteen

Album : Unleash the fury




Tune down one whole step D G C F


 Intro


 |----------|--3h4p3-1-------------------------|
 |----------|----------4-3---------------------|
 |----------|--------------4-1---2--1-----1----|
 |-0--------|--------------------------4-------| 



 |----------------------------------------3h4p3-1-------------------------|
 |------------------------------------------------4-3---------------------|
 |-2-----------1----------------------1-1--------------4-1---2---1-----1--|
 |----0-0-0-0-----0-0-0-0--4--0-0-0-0-------------------------------4----0|


 Verse 1
 
 |--------------------------------------------------------|
 |--------------------------------------------------------|
 |--------------------------------------------------------|
 |-2--1--1--0--1--1-1-1-1-1-1--2--1--1--2--1--0-0-0-0-0-0-|


 |-------------------------------------------------------------|
 |-------------------------------------------------------------|
 |-------------------------------------------------------------|
 |-2--1--1--0--1--1-1-1-1-1-1--2--1--1--2--0--0000000000000000-|


 |-------------------------------------------------------------|
 |-------------------------------------------------------------|
 |-2--1--1-----1--1-1-1-1-1-1--2--1--1--2----------------------|
 |----------4------------------------------4--4444444444444444-|


 |-------------------------------------------------------------|
 |-------------------------------------------------------------|
 |-2--1--1-----1--1-1-1-1-1-1-1--2--1--1--2--------------------|
 |----------4-------------------------------4---14/------------|

  
 

 Pre-Chorus


 |-----8-----------6------------5------------4--------------------------------|
 |----------------------------------------------------------------------------|
 |--6----6---4--4----4---3--3-3---3---2-2--2---2---1111-111-1111-111-11111111-|
 |----------------------------------------------------------------------------|


 Chorus 1 

 |----------------------------------------3h4p3-1-------------------------|
 |------------------------------------------------4-3---------------------|
 |-2-----------1----------------------1-1-------------4-1---2---1------1--|
 |----0-0-0-0-----0-0-0-0--4--0-0-0-0------------------------------4------|


 |----------------------------------------3h4p3-1-------------------------|
 |------------------------------------------------4-3---------------------|
 |-2-----------1----------------------1-1--------------4-1---2---1-----1--|
 |----0-0-0-0-----0-0-0-0--4--0-0-0-0-------------------------------4----0|


 Verse 2

 |--------------------------------------------------------|
 |--------------------------------------------------------|
 |--------------------------------------------------------|
 |-2--1--1--0--1--1-1-1-1-1-1--2--1--1--2--1--0-0-0-0-0-0-|


 |-------------------------------------------------------------|
 |-------------------------------------------------------------|
 |-------------------------------------------------------------|
 |-2--1--1--0--1--1-1-1-1-1-1--2--1--1--2--0--0000000000000000-|


 |-------------------------------------------------------------|
 |-------------------------------------------------------------|
 |-2--1--1-----1--1-1-1--1-1-1--2--1--1--2---------------------|
 |----------4------------------------------4--4444444444444444-|


 |-------------------------------------------------------------|
 |-------------------------------------------------------------|
 |-2--1--1-----1--1-1-1-1-1-1--2--1--1--2----------------------|
 |----------4------------------------------4/------------------|

  
 
 
 Pre-Chorus 2


 |--------8-----------6----------5----------4--------------------------------|
 |---------------------------------------------------------------------------|
 |--6-6------6---4-4------3-3-3----3---2-2----2---1111-111-1111-111-11111111-|
 |---------------------------------------------------------------------------|


 Chorus 2

 
 |----------------------------------------3h4p3-1-------------------------|
 |------------------------------------------------4-3---------------------|
 |-2-----------1----------------------1-1-------------4-1---2---1------1--|
 |----0-0-0-0-----0-0-0-0--4--0-0-0-0------------------------------4------|


 |----------------------------------------3h4p3-1-------------------------|
 |------------------------------------------------4-3---------------------|
 |-2-----------1----------------------1-1--------------4-1---2---1-----1--|
 |----0-0-0-0-----0-0-0-0--4--0-0-0-0-------------------------------4-----|


 |----------------------------------------3h4p3-1-------------------------|
 |------------------------------------------------4-3---------------------|
 |-2-----------1----------------------1-1-------------4-1---2---1------1--|
 |----0-0-0-0-----0-0-0-0--4--0-0-0-0------------------------------4------|


 |----------------------------------------3h4p3-1-------------------------|
 |------------------------------------------------4-3---------------------|
 |-2-----------1----------------------1-1--------------4-1---2---1-----1--|
 |----0-0-0-0-----0-0-0-0--4--0-0-0-0-------------------------------4----0|


 Bridge


 |--------------------------------------------------------------------------|
 |----------------12h14p12/11-11-9------------------------------------------|
 |--5--6--8--9---------------------11-9-------------11-----9-----8----6-----|
 |--------------------------------------11-9-11~~------9-----7-----6--------| X 2


 |--------------------------------------------------------------------------|
 |----------------14h16p14/13-13-11-----------------------------------------|
 |--7--8--10--11-------------------13-11-----------13-----11----10----8-----|
 |--------------------------------------13-11-13~~----11-----9-----8--------|


 |--------------------------------------------------------------------------|
 |----------------14h16p14/13-13-11-----------------------------------------|
 |--7--8--10--11-------------------13-11------------------------------------|
 |--------------------------------------13-11-13~~--------------------------|


 |--15-----13-----12-----10-----8----6----5----3----------------------------|
 |-----13-----11-----10-----8-----6----4----3----1---6----5----3------------|
 |-----------------------------------------------------4----3---------------|
 |--------------------------------------------------------------------------|


 Guitar solo
 
 |------------|
 |------------|
 |------------|
 |--33333333--| x 16

 
 |------------|          |------------|        |----------|
 |------------|          |--88888888--|        |--8888-8--|
 |------------|          |------------|        |----------|
 |--66666666--| X 12     |------------| X 3    |----------| X 1



 Pre-Chorus 3

 |-------------6-------------------------------|
 |---------------------------------------------|
 |--6----4--4----4--3--3--3-3---2-2-2--4-4-4---|
 |--3------------------------------------------|


 |--------------6---------------------------------------------------------|
 |------------------------------------------------------------------------|
 |--6----4-4--4---4--3--3--3-3---2-2-2--2--2---1111-111-1111-111-11111111-|
 |--3---------------------------------------------------------------------|


 Chorus 3

 |----------------------------------------3h4p3-1-------------------------|
 |------------------------------------------------4-3---------------------|
 |-2-----------1----------------------1-1-------------4-1---2---1------1--|
 |----0-0-0-0-----0-0-0-0--4--0-0-0-0------------------------------4------|


 |----------------------------------------3h4p3-1-------------------------|
 |------------------------------------------------4-3---------------------|
 |-2-----------1----------------------1-1--------------4-1---2---1-----1--|
 |----0-0-0-0-----0-0-0-0--4--0-0-0-0-------------------------------4-----|


 |----------------------------------------3h4p3-1-------------------------|
 |------------------------------------------------4-3---------------------|
 |-2-----------1----------------------1-1-------------4-1---2---1------1--|
 |----0-0-0-0-----0-0-0-0--4--0-0-0-0------------------------------4------|


 |----------------------------------------3h4p3-1-------------------------|
 |------------------------------------------------4-3---------------------|
 |-2-----------1----------------------1-1--------------4-1---2---1-----1--|
 |----0-0-0-0-----0-0-0-0--4--0-0-0-0-------------------------------4----0|

 
 Outro
 
 |--------------------------------------------------------------------------|
 |----------------12h14p12/11-11-9------------------------------------------|
 |--5--6--8--9---------------------11-9-------------11-----9-----8----6-----|
 |--------------------------------------11-9-11~~------9-----7-----6--------| X 2
 
 
 |------------------------------|
 |------------------------------|
 |--11-----9-----8----6----4--6-|
 |-----9-----7-----6------------| X 1


 h = hammer on
 
 p = pull off
 
 / = slide
 
 ~ = vibrato


 extremely difficult song to play.
 






 
 





Comments


Popular Yngwie Malmsteen tabs & chords
Baroque And Roll Bass Tabs
Allegro Tabs
Bedroom Eyes Tabs
Dark Ages Tabs
Dreaming Tabs
Forever Is A Long Tabs
Hanagr 18 Area Tabs
Icarus Dream Opus 4 Tabs
Marching Out Tabs
Somewhere Over The Rainbow Intro Tabs


Song lyrics



↑ Back to top | Tablatures and chords are parodies/interpretations of the original songs. You may use it for private study, scholarship, research or language learning purposes only
© 2014 AZChords.com Contact us | Privacy policy | DMCA | Add/correct tabs | Request tabs | Top 50 tabs