>
 >
Leonardo

Leonardo Bass Tabs

Yngwie Malmsteen - Leonardo chords, tabs, tablatures, lyrics

Guitar lessons | Add/correct | Request | Top 50 tabs Artists:  A B C D E F G H I J K L M N O P Q R S T U V W X Y Z 0-9

Leonardo Bass Tabs – Yngwie Malmsteen

CD, Sheet music, Poster

Do you like Leonardo? Share with your friends now
Bass TabsTabs

LEONARDO (Bassline)
As recorded by Yngwie Malmsteen
(From the 1999 Album ALCHEMY)

	



Gtr I (Bb Eb Ab Db Gb) - 'Untitled'

    Q=56
   4/4
    Gtr I
    Wx5
||----------||
||o--------o||
||----------||
||o--------o||
||----------||


  Q.   E Q  Q    Q.   E E E E E
|--------------|----------------|
|--------------|----------------|
|--------------|------5---------|
|-5----7----5--|-5------8-7-5---|
|--------8-----|--------------8-|


  Q.   E Q  Q    Q.   E E E E E   Q.   E Q  Q
|--------------|----------------|--------------||
|--------------|----------------|------2-------||
|--------------|----------------|-5------3--5--||
|-5----7----5--|------3---------|--------------||
|--------8-----|-6------6-5-3-1-|--------------||


    E S S E S S E S S S S S S
||----------------------------|
||o---------------------------|
||--------------2-2-2-2-----2-|
||o-5-5-5-5-5-5---------3-5---|
||----------------------------|


  E S S E S S E S S E S S   E S S E S S E S S E S S
|-------------------------|--------------------------|
|-------------------------|--------------------------|
|-3-3-3-3-3-3-5-5-5-5-5-5-|--------------------------|
|-------------------------|-0-0-0-0-0-0-1-1-1-1-1-1--|
|-------------------------|--------------------------|


  E S S E S S E S S E E   E S S E S S E S S S S S S   E S S E S S E S S E E
|---------------------4-|---------------------------|-----------------------|
|-----------------------|---------------------------|-----------------------|
|-----------------------|-------------2-2-2-2-----2-|-3-3-3-3-2-3-5-5-5-----|
|-3-3-3-3-3-3-4-4-4-4---|-5-5-5-5-5-5---------3-5---|-------------------5-5-|
|-----------------------|---------------------------|-----------------------|


                                                    ~
  E S S E S S E S S E S S   E S S E S S E S S E E   H      E  E  Q
|-------------------------|-----------------------|-----------------||
|-------------------------|-----------------------|-----------------||
|-------------------------|-----------------------|------/12-12-12--||
|-0-0-0-0-0-0-1-1-1-1-1-1-|-3-3-3-3-3-3-4-4-4-4-4-|-5---------------||
|-------------------------|-----------------------|-----------------||


  Q  E. S +S  E S E E   E E E. S +S  E S S S E
|---------------------|------------------------|
|---------------------|----------------------7-|
|---------------------|------------------------|
|---------------------|-5-5-5--5-(5)-5-5-5-5---|
|-3--3--3-(3)-3-3-3-3-|------------------------|


  E E E E E E S S E   E S S E S S E E E. S
|-------------------|----------------------|
|-------------------|-----------------2--2-|
|-------------------|----------------------|
|-------------------|-0-0-0-0-0-0-0-0------|
|-3-3-3-3-4-4-4-4-4-|----------------------|


  E S S E E E S S E E   E S S E S S S E S S S E
|---------------------|-1-1-1-1-1-2-2h4-4-4-2-1-|
|-------3-3-------3-3-|-------------------------|
|---------------------|-------------------------|
|-1-1-1-----1-1-1-----|-------------------------|
|---------------------|-------------------------|


  Q  Q  S E. Q    E S S E S S S E. E E
|-2-------------|-----------------------||
|------------7--|---------------7----7--||
|---------------|------------------7----||
|----5--5-5-----|-5-5-5-5-5-5-5---------||
|---------------|-----------------------||


  S T T S T T S T T S T T S T T S T T S T T S T T
|-------------------------------------------------|
|-------------------------------------------------|
|-------------------------------------------------|
|-0-0-0-0-0-0-0-0-0-0-0-0-0-0-0-0-0-0-0-0-0-0-0-0-|
|-------------------------------------------------|


  S T T S T T S T T S T T S T T S T T S T T S T T
|--------------------------------------------------|
|--------------------------------------------------|
|--------------------------------------------------|
|-0-0-0-0-0-0-0-0-0-0-0-0-0-0-0-0-0-0-0-0-0-0-0-0--|
|--------------------------------------------------|


  S T T S T T S T T S T T S T T S T T S T T S T T
|-------------------------------------------------|
|-------------------------------------------------|
|-------------------------------------------------|
|-0-0-0-0-0-0-0-0-0-0-0-0-0-0-0-0-0-0-0-0-0-0-0-0-|
|-------------------------------------------------|


  1.
  S T T S T T S T T S T T S T T S T T  Q
|--------------------------------------------||
|--------------------------------------------||
|--------------------------------------------||
|-0-0-0-0-0-0-0-0-0-0-0-0-0-0-0-0-0-0-12\----||
|--------------------------------------------||


  Q.   E Q  Q    Q.   E E E E E   Q.   E Q  Q
|--------------|----------------|--------------|
|--------------|----------------|--------------|
|--------------|------5---------|--------------|
|-5----7----5--|-5------8-7-5---|-5----7----5--|
|--------8-----|--------------8-|--------8-----|


  Q.   E E E E E   Q.   E Q  Q
|----------------|---------------||
|----------------|------2-------o||
|----------------|-5------3--5---||
|------3---------|--------------o||
|-6------6-5-3-1-|---------------||


  2.
  S T T S T T S T T S T T S T T S T T S T T S T T
|-------------------------------------------------|
|-------------------------------------------------|
|-------------------------------------------------|
|-0-0-0-0-0-0-0-0-0-0-0-0-0-0-0-0-0-0-0-0-0-0-0-0-|
|-------------------------------------------------|


  S T T S T T S T T S T T S T T S T T S T T S T T
|--------------------------------------------------|
|--------------------------------------------------|
|--------------------------------------------------|
|-0-0-0-0-0-0-0-0-0-0-0-0-0-0-0-0-0-0-0-0-0-0-0-0--|
|--------------------------------------------------|


  S T T S T T S T T S T T S T T S T T S T T S T T
|-------------------------------------------------|
|-------------------------------------------------|
|-------------------------------------------------|
|-0-0-0-0-0-0-0-0-0-0-0-0-0-0-0-0-0-0-0-0-0-0-0-0-|
|-------------------------------------------------|


  S T T S T T S T T S T T S T T S T T S T T S T T
|--------------------------------------------------|
|--------------------------------------------------|
|--------------------------------------------------|
|-0-0-0-0-0-0-0-0-0-0-0-0-0-0-0-0-0-0-0-0-0-0-0-0--|
|--------------------------------------------------|


  S T T S T T S T T S T T S T T S T T  Q
|------------------------------------------|
|------------------------------------------|
|------------------------------------------|
|-0-0-0-0-0-0-0-0-0-0-0-0-0-0-0-0-0-0-12\--|
|------------------------------------------|


    Q.   E Q  Q    Q.   E E E E E   Q.   E Q  Q
||---------------|----------------|--------------|
||o--------------|----------------|--------------|
||---------------|------5---------|--------------|
||o-5----7----5--|-5------8-7-5---|-5----7----5--|
||---------8-----|--------------8-|--------8-----|


  Q.   E E E E E   Q.   E Q  Q      W
|----------------|---------------||----------||
|----------------|------2-------o||----------||
|----------------|-5------3--5---||----------||
|------3---------|--------------o||-5--------||
|-6------6-5-3-1-|---------------||----------||


  S S S S S S S S S S S S S S S S
|----------------------------------|
|---3-2-------------3-2------------|
|-----------2-3-------------2-3----|
|-4-----4-5-----5-4-----4-5-----5--|
|----------------------------------|


  S S S S S S S S S S S S E E
|---3-2-------------5-4-------|
|-----------2-3---------------|
|-4-----4-5-----5-6-----6-7-7-|
|-----------------------------|
|-----------------------------|


                                    3/4
  S S S S S S S S S S S S S S S S    S S S S S S S S S S S S
|---------------------------------||---3-2-------------5-4-----||
|---3-2-------------3-2-----------||-----------2-3-------------||
|-----------2-3-------------2-3---||-4-----4-5-----5-6-----6---||
|-4-----4-5-----5-4-----4-5-----5-||---------------------------||
|---------------------------------||---------------------------||


 4/4
                                            ~~             ~
  E E E E E E T T T T T T T T    Q  +E. S E Q.     E E E E Q  T T T T T T T T
|-----------------------------||-----------------|----------------------------|
|---------------------4-5-6-7-||------------6----|-7-7-7-7-7----------4-5-6-7-|
|-7-7-7-7-----5-6-7-8---------||-5--(5)----------|------------5-6-7-8---------|
|---------0-0-----------------||--------5-4------|----------------------------|
|-----------------------------||-----------------|----------------------------|


           ~
  Q  +E. S H      H    Q  T T T T T T T T
|---------------|-------------------------|
|---------------|-----------------4-5-6-7-|
|-5--(5)--------|---------5-6-7-8---------|
|--------5-4----|-5----5------------------|
|---------------|-------------------------|


  Q   E. S E E S S E   H.      T T T T T T T T
|----/7--------------|---------------------------|
|--------7-6-6-6-----|-----------------4-5-6-7---|
|-5--------------5---|---------5-6-7-8-----------|
|------------------4-|-5-------------------------|
|--------------------|---------------------------|


  Q   E. S E E E E   H    +E. S Q     W          +W           +W
|----/7------------|---------------||----------|------------|--------|
|--------7-6-6-6---|-7----(7)---7--||----------|------------|--------|
|-5--------------7-|----------7----||----------|------------|--------|
|------------------|---------------||-7--------|-(7)--------|-(7)----|
|------------------|---------------||----------|------------|--------|


  +W           Wx4           E E E. S +S  E S S S E   E E E. S +S  E S S S E
|------------|------------||------------------------|-------------------------|
|------------|------------||------------------------|-------------------------|
|------------|------------||-----7------------7-----|-----7------------7------|
|-(7)--------|------------||-0-0----0-(0)-0-0---0-0-|-0-0----0-(0)-0-0---0-0--|
|------------|------------||------------------------|-------------------------|


  E E E. S +S  E S S S E   E E E. S +S  E S S S E
|------------------------|------------------------|
|------------------------|------------------------|
|-----7------------7-----|-----7------------7-----|
|-0-0----0-(0)-0-0---0-0-|-0-0----0-(0)-0-0---0-0-|
|------------------------|------------------------|


  E E E. S +S  E S S S E   E E E. S +S  E S S S E
|------------------------|-------------------------|
|------------------------|-------------------------|
|-----7------------7-----|-----7------------7-8-5--|
|-0-0----0-(0)-0-0---0-0-|-0-0----0-(0)-0-0--------|
|------------------------|-------------------------|


  E E E. S +S  E S S S E   E E E. S +S  E S S S E
|------------------------|------------------------||
|------------------------|------------------------||
|-----7------------7-----|-----7------------7-----||
|-0-0----0-(0)-0-0---0-0-|-0-0----0-(0)-0-0---0-0-||
|------------------------|------------------------||


  E E E. S +S  E S S S E   E E E. S +S  E S S S E
|------------------------|------------------------|
|-----7------------------|------------------------|
|--------------------7-7-|-----7------------7-7---|
|-5-5----5-(5)-5-5-5-----|-0-0----0-(0)-0-0-----0-|
|------------------------|------------------------|


                                              ~
  E S S S S E E S S E E   S S S S S S E S S E Q    E E  Q  E S S S S E
|-----------------------|------------------------|---------------------|
|-------7-7-------------|---------------9-----9--|-----10--------------|
|-----------------------|-----------7-9---9-7----|-------------------7-|
|-5-5-5-----5-6-6-6-6-6-|-7-7-7-7-7--------------|-8-8-----8-8-8-8-8---|
|-----------------------|------------------------|---------------------|


              ~~~~~
  E S S E S S Q  Q    H.      S E.   H     H        W
|-------------------|--------------|-------------||------|
|-------------------|--------------|-------------||------|
|-6-6-6-6-6-6-9--6--|-7-------7----|-------------||------|
|-------------------|-----------7\-|-0----12\----||-5----|
|-------------------|--------------|-------------||------|


  +W           +W           +W           +W
|------------|------------|------------|------------|
|------------|------------|------------|------------|
|------------|------------|------------|------------|
|-(5)--------|-(5)--------|-(5)--------|-(5)--------|
|------------|------------|------------|------------|


  +W           +W           +W           Wx5
|------------|------------|------------|--------*|
|------------|------------|------------|--------*|
|------------|------------|------------|--------*|
|-(5)--------|-(5)--------|-(5)--------|--------*|
|------------|------------|------------|--------*|



Duration Legend
---------------
W - whole; H - half; Q - quarter; E - 8th; S - 16th; T - 32nd; X - 64th; a - acciaccatura
+ - note tied to previous; . - note dotted; .. - note double dotted
Uncapitalized letters represent notes that are staccato (1/2 duration)
Irregular groupings are notated above the duration line
Duration letters will always appear directly above the note/fret number it represents the
duration for.  Duration letters with no fret number below them represent rests.  Multi-
bar rests are notated in the form Wxn, where n is the number of bars to rest for.  Low
melody durations appear below the staff

Tablature Legend
----------------
 h   - hammer-on
 p   - pull-off
 b   - bend
 pb  - pre-bend
 r   - bend release (if no number after the r, then release immediately)
 /\  - slide into or out of (from/to "nowhere")
 s   - legato slide
 S   - shift slide
 - natural harmonic
[n]  - artificial harmonic
n(n) - tapped harmonic
 ~   - vibrato
 tr  - trill
 T   - tap
 TP  - trem. picking
 PM  - palm muting
\n/  - tremolo bar dip; n = amount to dip
 \n  - tremolo bar down
 n/  - tremolo bar up
/n\  - tremolo bar inverted dip
 =   - hold bend; also acts as connecting device for hammers/pulls
 <> - volume swell (louder/softer)
 x   - on rhythm slash represents muted slash
 o   - on rhythm slash represents single note slash

Misc Legend
-----------
 |  - bar
||  - double bar
||o - repeat start
o|| - repeat end
*|  - double bar (ending)
 :  - bar (freetime)
 $  - Segno
 &  - Coda
Tempo markers -  = BPM(8/16=s8/s16), where s8 = swing 8ths, s16 = swing 16ths





Comments


Popular Yngwie Malmsteen tabs & chords
Baroque And Roll 2 Bass Tabs
Beethovens 5th Symphony 2 Bass Tabs
Arpeggois From Hell Tabs
Disciples Of Hell 1 Tabs
Don't Let It End Tabs
Hanagr 18 Area Tabs
I Am A Viking Tabs
My Resurrection 1 Tabs
Never Die Tabs
Trilogy Suite Intro Tabs


Song lyrics



↑ Back to top | Tablatures and chords are parodies/interpretations of the original songs. You may use it for private study, scholarship, research or language learning purposes only
© 2014 AZChords.com Contact us | Privacy policy | DMCA | Add/correct tabs | Request tabs | Top 50 tabs