» » »

Yngwie Malmsteen, Ill See The Light Out Tonight Tabs (ver.1)

Artists:  A B C D E F G H I J K L M N O P Q R S T U V W X Y Z # 

Ill See The Light Out Tonight Tabs (ver.1)

Yngwie Malmsteen Tabs
Rating:
0/5 (0 votes)
Ill See The Light Out Tonight lessons Tabs too difficult? Try these video lessons and learn fast
                I have not at all tried to do an accurate transcribtion - this is
just the basic riffs. I have not transcribed the solopart, but have
included the interlude.

The first notes are played with the "pinky" on the volumen knob and about
500ms delay.
The interludepart should do a great picking exercise. Sweep-pick, that's
how Yngwie plays.

By the way, this is my first tab-post, so don't be too surprised to see 
some errors. Comments are welcome...

b1	play previous note and bend one fret
r	rebend
'	pull-offs, hammer-ons
/	slide up
\	slide down
~	vibrato
~~	wide vibrato
/\/	vibrato with whammybar



			Yngwie J. Malmsteen
		    I'll see the light tonight
		*********************************
		_________________________________


	    with volumen knob and delay
	---14-b1--r-------------------------------------------------------
	------------------------------------------------------------------
	-----------------------------16~~---------------10-b1--r----------
	------------------------------------------------------------------
	------------------------------------------------------------------
	------------------------------------------------------------------

	3x                        
	---------------------------------------------12-17'12---
	--------------------------------------------13------13---
	10----------------------------------------14*-------14-
	---6-9-7-9-------------------------6-7-9-6-7-------------
	-----------5-8-7-5---------5-7-8-5----------------------
	-------------------4-5-7-4-------------------------------
                                                   *dub
            

comments powered by Disqus
↑ Back to top | Yngwie Malmsteen Tabs for Ill See The Light Out Tonight. Lyrics for acoustic guitar and electric guitar. Tablatures and chords are parodies/interpretations of the original songs. You may use it for private study, scholarship, research or language learning purposes only