» » »

Yngwie Malmsteen, Hanagr 18 Area Tabs (ver.1)

Artists:  A B C D E F G H I J K L M N O P Q R S T U V W X Y Z # 

Hanagr 18 Area Tabs (ver.1)

Yngwie Malmsteen Tabs
 Rating:
4/5 (4 votes)
Hanagr 18 Area lessons Tabs too difficult? Try these video lessons and learn fast
                4/4                                               
|------------------------------------------------|
|------------------------------------------------|
|------------------------------------------------|
|-------------------------6--7-----6-------------|
|-5--7--------------------------8-----8--7--5--8-|
|-------0--0--0--0--0--0-------------------------|
                                                  

                                                  
|------------------------------------------------|
|------------------------------------------------|
|------------------------------------------------|
|-------------------------9-10--7--9--6-7-6------|
|-5--7--------------------------------------8--7-|
|-------0--0--0--0--0--0-------------------------|
                                                  

                                                  
|------------------------------------------------|
|------------------------------------------------|
|-------------------------9-10--7--9-----7-------|
|------------------------------------10-----9-10-|
|-5--7-------------------------------------------|
|-------0--0--0--0--0--0-------------------------|
                                                  

                                                  
|------------------------------------------------|
|------------------------------------------------|
|------------------------------------------------|
|-7--9--6--7-----6-------------------------------|
|-------------8-----8--7--5--8--7--5-------------|
|-------------------------------------8--7--5--4-|
                                                  

                                                  
|------------------------------------------------|
|------------------------------------------------|
|------------------------------------------------|
|-------------------------6--7-----6-------------|
|-5--7--------------------------8-----8--7--5--8-|
|-------0--0--0--0--0--0-------------------------|
                                                  

                                                  
|------------------------------------------------|
|------------------------------------------------|
|------------------------------------------------|
|-------------------------9-10--7--9--6-7-6------|
|-5--7--------------------------------------8--7-|
|-------0--0--0--0--0--0-------------------------|
                                                  

                                                  
|------------------------------------------------|
|------------------------------------------------|
|-------------------------9-10--7--9-----7-------|
|------------------------------------10-----9-10-|
|-5--7-------------------------------------------|
|-------0--0--0--0--0--0-------------------------|
                                                  

                                                  
|------------------------------------------------|
|------------------------------------------------|
|------------------------------------------------|
|-7--9--6--7-----6-------------------------------|
|-------------8-----8--7--5--8--7--5-------------|
|-------------------------------------8--7--5--4-|
                                                  

                                                               
|------------------------------------------------|------------|
|------------------------------------------------|------------|
|------------------------------------------------|-5--4--2----|
|------------------------------------------------|-5--5--2--5-|
|-0--0--0--0--0--0--0--0--0--0--0--0--0--0--0--0-|-------0--5-|
|------------------------------------------------|----------3-|
                                                               

                                                  
|------------------------------------------------|
|------------------------------------------------|
|------------------------------------------------|
|-3----------------------------------------------|
|-3----------------------------------------------|
|-1-----1--1--1--1--1--1--1--1--1--1--1--1--1--1-|
                                                  

                                                  
|------------------------------------------------|
|------------------------------------------------|
|------------------------------------------------|
|-5----------------------------------------------|
|-5----------------------------------------------|
|-3-----3--3--3--3--3--3--3--3--3--3--3--3--3--3-|
                                                  

                                                               
|------------------------------------------------|------------|
|------------------------------------------------|------------|
|------------------------------------------------|-5--4--2----|
|------------------------------------------------|-5--5--2--5-|
|-0--0--0--0--0--0--0--0--0--0--0--0--0--0--0--0-|-------0--5-|
|------------------------------------------------|----------3-|
                                                               

                                                  
|------------------------------------------------|
|------------------------------------------------|
|------------------------------------------------|
|-3----------------------------------------------|
|-3----------------------------------------------|
|-1-----1--1--1--1--1--1--1--1--1--1--1--1--1--1-|
                                                  

                                                  
|------------------------------------------------|
|------------------------------------------------|
|-5----------------------------------------------|
|-5-----------------------5----------------------|
|-3-----3--3--3--3--3--3--5----------------------|
|-------------------------3-----3--3--3--3--3--3-|
                                                  

                                                  
|------------------------------------------------|
|------------------------------------------------|
|-5----------------------------------------------|
|-5----------------------------------------------|
|-3-----3--3--3--3--3--3--3--3--3--3--3--3--3--3-|
|------------------------------------------------|
                                                  

                                                  
|------------------------------------------------|
|------------------------------------------------|
|------------------------------------------------|
|-5----------------------------------------------|
|-5----------------------------------------------|
|-3-----3--3--3--3--3--3--3--3--3--3--3--3--3--3-|
                                                  

                                                  
|------------------------------------------------|
|------------------------------------------------|
|------------------------------------------------|
|-6----------------------------------------------|
|-6----------------------------------------------|
|-4-----4--4--4--4--4--4--4--4--4--4--4--4--4--4-|
                                                  

                                                  
|------------------------------------------------|
|------------------------------------------------|
|------------------------------------------------|
|-7-----------------------5----------------------|
|-7-----------------------5----------------------|
|-5-----5--5--5--5--5--5--3-----3--3--3--3--3--3-|
                                                  

                                                  
|------------------------------------------------|
|------------------------------------------------|
|------------------------------------------------|
|-3----------------------------------------------|
|-3----------------------------------------------|
|-1-----1--1--1--1--1--1--1--1--1--1--1--1--1--1-|
                                                  

                                                  
|------------------------------------------------|
|------------------------------------------------|
|------------------------------------------------|
|-4----------------------------------------------|
|-4----------------------------------------------|
|-2-----2--2--2--2--2--2--2--2--2--2--2--2--2--2-|
                                                  

                                                  
|------------------------------------------------|
|------------------------------------------------|
|------------------------------------------------|
|-2----------------------------------------------|
|-2----------------------------------------------|
|-0-----0--0--0--0--0--0--0--0--0--0--0--0--0--0-|
                                                  

                                                  
|------------------------------------------------|
|------------------------------------------------|
|------------------------------------------------|
|------------------------------------------------|
|------------------------------------------------|
|-0--0--0--0--0--0--0--0--0--0--0--0--0--0--0--0-|
                                                  

                                                  
|------------------------------------------------|
|------------------------------------------------|
|------------------------------------------------|
|-------------------------6--7-----6-------------|
|-5--7--------------------------8-----8--7--5--8-|
|-------0--0--0--0--0--0-------------------------|
            
Submit corrections

comments powered by Disqus
↑ Back to top | Yngwie Malmsteen Tabs for Hanagr 18 Area. Lyrics for acoustic guitar and electric guitar. Tablatures and chords are parodies/interpretations of the original songs. You may use it for private study, scholarship, research or language learning purposes only