» » »

Yngwie Malmsteen, Gimme Gimme Gimme Tabs (ver.1)

Artists:  A B C D E F G H I J K L M N O P Q R S T U V W X Y Z # 

Gimme Gimme Gimme Tabs (ver.1)

Yngwie Malmsteen Tabs
 Rating:
4/5 (4 votes)
Gimme Gimme Gimme lessons Tabs too difficult? Try these video lessons and learn fast
                (Intro)
hi guys, this is my first tab so please comment, i realized there were no tabs for this 
so decided to make my own but i've only found the first part out. anyway here's what i got:

this is in Eb tuning.

   d----| u----|     d----|   u----|            d--------|  u------------|
|------3--3--------------3--|-3-------------------------10--10-----------|
|0----4----4----(r)-----4---|--4----------------------11------11---------|
|----5------5---(e)----5----|---5-------------------12----------12-------|
|---5--------5--(s)---5-----|----5--------3--5----12--------------12-----|
|0-3----------3-(t)--3------|-----3--5--6-------10------------------10---|
|---------------(1)---------|--------------------------------------------|
  |||||  |||||  r   |||||    |||||  |  | |  |   | | | | |  | | | | |
  ¬¬¬¬¬  ¬¬¬¬¬      ¬¬¬¬¬    ¬¬¬¬¬  ¬¬¬¬¬¬¬¬¬   ¬¬¬¬¬¬¬¬¬  ¬¬¬¬¬¬¬¬¬


     d-----| u-------------------------------------------------------------|
|---------3--3----------|-----------------|----------------|---------------|
|-(r)----4----4----(r)-0|0-11b(13)-11-8---|--------------8-|---------------|
|-(e)---5------5---(e)--|---------------8-|-8h10-10-8h10---|---8-8h10-10---|
|-(s)--5--------5--(s)--|-----------------|----------------|-10------------|
|-(t)-3----------3-(t)-0|0----------------|----------------|---------------|
|-(1)--------------(1)--|-----------------|----------------|---------------|
   r  |||||  |||||  r       |   |   | | |   | |   |  | | |    | | ||   |
      ¬¬¬¬¬  ¬¬¬¬¬          ¬¬¬¬¬           ¬¬¬      ¬¬¬          ¬¬


|-------------------------|
|------8-----------------0|
|-8h10-----10-8-----------|
|---------------(10)------|
|------------------------0|
|-------------------------|
  |  | |   |  |   |
  ¬¬¬¬¬¬   ¬¬¬¬


Key:

|-----|   repeat bar(s)
|0---0|   (if unspecified no. play through twice).
|--5--|
|--5--|
|0-3-0|
|-----|


h= hammer on
p= pull off
b= bend note
(rest)=restand the number underneath is how long to hold it.

*next part of key is about the lines underneath the numbers (using a metronome).

   |= hold note for 1beat
    ||=play 2 notes in a beat
    ¬¬
    ||||=play 4 notes in a beat
    ¬¬¬¬
    |||||=play 5notees in a beat
    ¬¬¬¬¬

 if the note is in brakets with a line underneath, hold it for two beats.

 r=rest


so thats the tab, tell me what you think and have fun with he cool sweeps.
            
Submit corrections

comments powered by Disqus
↑ Back to top | Yngwie Malmsteen Tabs for Gimme Gimme Gimme. Lyrics for acoustic guitar and electric guitar. Tablatures and chords are parodies/interpretations of the original songs. You may use it for private study, scholarship, research or language learning purposes only