>
 >
Eclipse 1

Eclipse 1 Guitar Tabs

Yngwie Malmsteen - Eclipse 1 chords, tabs, tablatures, lyrics

Guitar lessons | Add/correct | Request | Top 50 tabs Artists:  A B C D E F G H I J K L M N O P Q R S T U V W X Y Z 0-9

Eclipse 1 Guitar Tabs – Yngwie Malmsteen

CD, Sheet music, Poster

Do you like Eclipse 1? Share with your friends now
TabsTabs v2

ECLIPSE
As recorded by Yngwie Malmsteen
(From the 1990 Album ECLIPSE)

	

Music by Yngwie J. Malmsteen

A5
x 0 2 x x x
	
E5
0 2 x x x x
	
F5
1 3 x x x x
	
F5(type 2)
x 8 10 x x x

E5(type 2)
x 7 9 x x x
	
A5(type 2)
5 7 x x x x
	
D5
x x 0 2 x x
	
Bb5
x 1 3 x x x

G5
3 5 x x x x
	
C5
x 3 5 x x x
	
Em
0 2 2 0 0 0

Gtr I (E A D G B E) - 'Yngwie Malmsteen (Melody)'
Gtr II (E A D G B E) - 'Yngwie Malmsteen (Overdubb 2 and Rhythm)'
Gtr III (E A D G B E) - 'Yngwie Malmsteen (Overdubb 2)'
Gtr IV (E A D G B E) - 'Yngwie Malmsteen (Overdubb 3)'
Gtr V (E A D G B E) - 'Keys I'
Gtr VI (E A D G B E) - 'Keys II'

   Intro
    Vivace Q=140
    A5                                    E5
   4/4
    Gtr II
     W                                     W
     |                                     |
     /                                     /

    Gtrs I, V
     PM
     S S  S S  E  E  S S  S S  S S  S S    S S S S  E  E  S S S S  S S S S
||--12p8------12-13-12p8------12p8----7-|-10p7-----10-12-10p7-----10p7-----|
||o------10--------------10--------10---|------8--------------8--------8---|
||----------9---------------9-----------|--------7--------------7--------7-|
||--------------------------------------|----------------------------------|
||o-------------------------------------|----------------------------------|
||--------------------------------------|----------------------------------|


  F5                             B
  W                               W
  |                               |
  /                               o

  S S S S E  E S S S S S S S S    S S S S  E E  S S S S  S S S S
|-8p5-----8-10-8p5-----8p5---7-|-10p7-----10-7-10p7-----10p7--------|
|-----6------------6-------6---|------8-------------8--------8------|
|-------5------------5---------|--------7-------------7--------7----|
|------------------------------|------------------------------------|
|------------------------------|------------------------------------|
|------------------------------|------------------------------------|


  C                         D           E              E
   H.                        Q           H              H
   |                         |           |              |
   o                         o           o              o

   S S  S S  E  E  S S  S S  S S  S S    S S S S  E  E  S S S S  S S S S
|-12p8------12-13-12p8------12p8------|-10p7-----10-12-10p7-----10p7-----|
|------10--------------10--------10---|------8--------------8--------8---|
|---------9---------------9---------9-|--------7--------------7--------7-|
|-------------------------------------|----------------------------------|
|-------------------------------------|----------------------------------|
|-------------------------------------|----------------------------------|


  F5(type 2)                     E5(type 2)
  H            Q       Q          H                       H
  |            |       |          |                       |
  /            /       /          /                       /

  S S S S E  E S S S S S S S S    S  S  S  S  S  S  S  S  S  S  S  S  S  S  S  S
|-8p5-----8-10-8p5-----8p5-----|-17p12-------17p12-------16p12-------16p12-----------||
|-----6------------6-------6---|-------12----------12----------12----------12-------o||
|-------5------------5-------5-|----------14----------14----------13----------13-----||
|------------------------------|-----------------------------------------------------||
|------------------------------|----------------------------------------------------o||
|------------------------------|-----------------------------------------------------||


                   Am         E            Dm         F
          ~~~~
   a     +H.                  Q    W
|-15b17-(15)---------------------|-----------------------|
|-15b17-(15)---------------------|-----------------------|
|--------------------------------|-----------------------|
|--------------------------------|-----------------------|
|--------------------------------|-----------------------|
|--------------------------------|-----------------------|
|  a     +H.                  Q
|
| Gtr II
|         PM-----|    PM----|      PM----|    PM----|
|         S  S S S Q  S S S S Q    S S S S Q  S S S S Q
|------------------5----------4--|---------5----------5--|
|------------------5----------5--|---------6----------6--|
|------------------5----------4--|---------7----------5--|
|--------------------------------|-----------------------|
|---------0--0-0-0----0-0-0-0----|-0-0-0-0----0-0-0-0----|
|--------------------------------|-----------------------|


          Am         E              Bb         E
  W                         W
|-------------------------|-------------------------|
|-------------------------|-------------------------|
|-------------------------|-------------------------|
|-------------------------|-------------------------|
|-------------------------|-------------------------|
|-------------------------|-------------------------|
|
| PM----| ~  PM----|        PM----|    PM----|
| S S S S Q  S S S S E  E   S S S S Q  S S S S Q
|---------5----------4\---|-------------------------|
|---------5----------5\---|---------6---------------|
|---------5----------4\---|---------7----------9----|
|-------------------------|---------8----------9----|
|-0-0-0-0----0-0-0-0------|-------------------------|
|-------------------------|-6-6-6-6----4-4-4-4------|


          Am         E            Dm         F
  Gtr II
  PM----|    PM----|      PM----|    PM----|
  S S S S Q  S S S S Q    S S S S Q  S S S S Q
|---------5----------4--|---------5----------5--|
|---------5----------5--|---------6----------6--|
|---------5----------4--|---------7----------5--|
|-----------------------|-----------------------|
|-0-0-0-0----0-0-0-0----|-0-0-0-0----0-0-0-0----|
|-----------------------|-----------------------|


          Am         E              Dm            E
  PM----| ~  PM----|        PM----|     PM----|
  S S S S Q  S S S S E  E   S S S S Q   S S S S a Q
|---------5----------4\---|----------------------------||
|---------5----------5\---|---------6\-----------------||
|---------5----------4\---|---------7\----------4s9----||
|-------------------------|---------------------6s9----||
|-0-0-0-0----0-0-0-0------|----------------------------||
|-------------------------|-6-6-6-6-----4-4-4-4--------||


 Theme I
  C#m                     A
  Gtr I
   ~~~~~~~~~~~             ~~~~~~~~~~
   H      +E   Q      E    H     +E   Q      E
|-----------------------|------------------------|
|---------------------9-|--------------------9---|
|--9------(9)-11--------|--9-----(9)-11----------|
|-----------------------|------------------------|
|-----------------------|------------------------|
|-----------------------|------------------------|
|
| Gtr II
|  ~~~~~~~~~~~     ~~~~    ~~~            ~~~~
|  H      +E   Q      E    H.             E  S S
|-----------------------|------------------------|
|-----------------------|------------------------|
|--------------8------9-|--------------------8h9-|
|-11-----(11)-----------|-11---------------------|
|-11-------------(11)---|-12------------(12)-----|
|-----------------------|------------------------|
   H.             +E  E    H.            +E  E


  B5                   C#m
   ~~~                  ~~~
   H.           E  E    H.          E  E
|--------------------|--------------------|
|-12------------9----|--------------------|
|-----------------11-|--9-----------9\----|
|--------------------|--------------------|
|--------------------|--------------------|
|--------------------|--------------------|
|
|  ~~~                  ~~~~~~~~~~~
|  H      +E  Q    E    H      +Q.     E
|--------------------|--------------------|
|--------------------|--------------------|
|-11-----(11)-9----8-|--------------------|
|--9------------9----|-11-----(11)--------|
|--------------------|-11-----(11)--------|
|--------------------|--------------------|
   H.           Q       H      +Q.     E


    C#m                  A
     ~~~~~~~~~~~          ~~~~~~~~~~~
  a  H       E   Q   E    H      +E   Q        E
|----------------------|----------------------------|
|--------------------9-|-----------------------9----|
|-6s=9-------9--11-----|--9------(9)-11-------------|
|----------------------|----------------------------|
|----------------------|----------------------------|
|----------------------|----------------------------|
|
|    ~~~~~~~~~~~          ~~~~~~~~~~~
| a  H      +E   Q   E    H      +E   E  +S  S S  S
|----------------------|----------------------------|
|----------------------|----------------------------|
|----------------8---9-|---------------------8h9-11-|
|-9s11-----(11)----6---|-11-----(11)-11-(11)--------|
|---11-----------------|-12--------------12---------|
|----------------------|----------------------------|
     H.            Q      H.              Q


  E                           B5
   ~~                           ~~~~
   H     +E    a      +Q.       H.           +E   E
|-12----(12)-(12)b14-(12)---|-(11)----------(11)\---|
|--9-----(9)-----------9----|--10-----------(10)\---|
|---------------------------|-----------------------|
|---------------------------|-----------------------|
|---------------------------|-----------------------|
|---------------------------|-----------------------|
|  H     +E            Q.       H.           +E   E
|
|  ~~~~~~~~~~          ~~~~~    ~~~~  ~~~~
|  H     +E    a      +Q.      +Q    +H       E   E
|---------------------------|-----------------------|
|--9-----(9)----------------|-----------------------|
|-------------11b12==(11)r==|=(11)--(11)-----11\----|
|--9-----(9)-----------9----|---9-------------------|
|---------------------------|-----------------------|
|---------------------------|-----------------------|
   H     +E            Q.       H.            Q


    C#m                  A5
     ~~~~~~~~~~~         ~~~~~~~~~~
     H      +E   Q   E   H     +E   Q      E
|----------------------|-----------------------|
|--------------------9-|-----------------------|
|----9------(9)-11-----|-9-----(9)-11-----13---|
|----------------------|-----------------------|
|----------------------|-----------------------|
|----------------------|-----------------------|
|
|    ~~~~~~~~~~~         ~~~~~~~~~~~~~~~~~
| a  H      +E   Q   E   H.           +E   S S
|----------------------|-----------------------|
|----------------------|-----------------------|
|----------------8---9-|-9------------(9)--8h9-|
|-9s11-----(11)----6---|-7------------(7)------|
|---11-----------------|-----------------------|
|----------------------|-----------------------|
     H.            Q     H.           +E   E


  B5                   C#m
   ~~~                  ~~~
   H.      E     E      H.        E  E
|--------------------|-----------------|
|-12-------9---------|-----------------|
|---------------11---|--9---------9\---|
|--------------------|-----------------|
|--------------------|-----------------|
|--------------------|-----------------|
|
|  ~~~                  ~~~~~~~~~~~~~
|  H.      S  S  S S    H.       +E  E
|--------------------|-----------------|
|--------------------|-----------------|
|-11-------9h11p=9-8-|-----------------|
|--9-------9---------|-11-------(11)---|
|--------------------|-11-------(11)---|
|--------------------|-----------------|
   H.      Q            H.       +E  E


  C#m                  A
   ~~~~~~~~~~~          ~~~
   H      +E   Q   E    H     +E   Q       E
|--------------------|--------------------------|
|------------------9-|--------------------------|
|--9------(9)-11-----|--9-----(9)-11------13----|
|--------------------|--------------------------|
|--------------------|--------------------------|
|--------------------|--------------------------|
|
|  ~~~
|  H      +E   Q   E    H.            +E   S  S
|--------------------|--------------------------|
|--------------------|--------------------------|
|--------------8---9-|---------------------9h11-|
|-11-----(11)----6---|-11------------(11)-------|
|-11-----------------|-12------------(12)-------|
|--------------------|--------------------------|
   H.            E E    H.            +E   E


         B5
           ~~~~~~~~~~~~          ~~~
           H      +E    Q   E    H.        E   E
|-----------------------------|------------------||
|-----------------------------|------------------||
|----------9------(9)---9---9-|--8---------8\----||
|-----------------------------|------------------||
|-----------------------------|------------------||
|-----------------------------|------------------||
|
|          ~~~~                  ~~~
|  a      +H      +E    Q   E    H.       +E   E
|-----------------------------|------------------||
|----------------------10---9-|------------------||
|-11b13==(11)----(11)r--------|-11-------(11)\-8-||
|----------9--------------9---|--9--------(9)----||
|-----------------------------|------------------||
|-----------------------------|------------------||
           H.             Q      H.       +E   E


        Bbsus2              Csus2
                              ~~~~
   a      W            a      W
|---------8---------|--------10---------|
|-11b13-(11)--------|-13b15-(13)--------|
|-------------------|-------------------|
|-------------------|-------------------|
|-------------------|-------------------|
|-------------------|-------------------|
|
|         ~~~~                ~~~~
|         W            a      W
|-------------------|-------------------|
|-------------------|---------7---------|
|---------9---------|--9b11--(9)--------|
|---------5---------|---------7---------|
|-------------------|-------------------|
|-------------------|-------------------|
          W                   W


         Dsus2
           ~~~~
   a       W            +H.         E    E
|---------12---------|-(12)--------12\------|
|-15b17==(15)--------|-(15)r----------------|
|--------------------|-------------------0--|
|--------------------|----------------------|
|--------------------|----------------------|
|--------------------|----------------------|
|
|          ~~~~          ~~~~~
|  a       W            +H.        +E    E
|--------------------|----------------------|
|----------8---------|--(8)--------(8)\-----|
|-10b12==(10)--------|-(10)-------(10)r\----|
|----------9---------|--(9)-----------------|
|--------------------|----------------------|
|--------------------|----------------------|
           W            +H.         Q


        Bbsus2              Csus2
                              ~~~~
   a      W            a      W
|---------8---------|--------10---------|
|-11b13-(11)--------|-13b15-(13)--------|
|-------------------|-------------------|
|-------------------|-------------------|
|-------------------|-------------------|
|-------------------|-------------------|
|
|         ~~~~                ~~~~
|  a      W            a      W
|-------------------|-------------------|
|--------10---------|--------12---------|
|-12b14-(12)--------|-14b16-(14)--------|
|--------10---------|--------12---------|
|-------------------|-------------------|
|-------------------|-------------------|
          W                   W


         Dsus2
           ~~~~
   a       W            +H.         Q
|---------12---------|-(12)--------12\----||
|-15b17==(15)--------|-(15)r--------------||
|--------------------|--------------------||
|--------------------|--------------------||
|--------------------|--------------------||
|--------------------|--------------------||
|
|          ~~~~          ~~~~~
|  a       W            +H.         Q
|---------12---------|-(12)---------------||
|-15b17==(15)--------|-(15)r--------------||
|--------------------|--------------------||
|---------14---------|-(14)-------(14)----||
|--------------------|-----------------0--||
|--------------------|--------------------||
           W            +H.        +E  E


    A5
    Gtr II
     W
     |
     /

     S  S  S  S  S  S  S  S  S  S  S  S  S  S  S  S
||--------12-16-17-12-13----12----------------------|
||o----13----------------15----13-15-12-13----12----|
||--14-------------------------------------14----13-|
||--------------------------------------------------|
||o-------------------------------------------------|
||--------------------------------------------------|


   W
   |
   /

   S  S  S  S  S  S  S  S  S  S  S  S  S  S  S  S
|-------12-16-17-12-13----12-----------------------|
|----13----------------15----13-15-12-13----12-----|
|-14-------------------------------------14----14--|
|--------------------------------------------------|
|--------------------------------------------------|
|--------------------------------------------------|


  E5
   W
   |
   /

   S  S  S  S  S  S  S  S  S  S  S  S  S  S  S  S
|-------12-16-13-16-12-16----16----16-------------|
|----12-------------------15----13----12-13-15-12-|
|-13----------------------------------------------|
|-------------------------------------------------|
|-------------------------------------------------|
|-------------------------------------------------|


  A5
   W
   |
   /

                                       ~~~
   S  S  S  S  S  S  S  S  S  S  S  S  E.  S
|-------12-16-17-12-13----12------------------|
|----13----------------15----15-13-12---------|
|-14----------------------------------14--13--|
|---------------------------------------------|
|---------------------------------------------|
|---------------------------------------------|


  D5                      Bb5
   H                       H
   |                       |
   /                       /

   S  S  S  S  S  S  S  S  S S S S  S S S S
|-13p10----10-13p10----13-10p6---6-10p6---6-|
|-------10----------10---------6--------6---|
|-------------------------------------------|
|-------------------------------------------|
|-------------------------------------------|
|-------------------------------------------|


  G5                A5
  H                 H
  |                 |
  /                 /

  |-3-|
  S S S S S S S S S S S S S  S S  S  S
|-4h7p4---4-7p4---7-8p5---5-12p8----12--|
|-------5-------5-------5--------10-----|
|---------------------------------------|
|---------------------------------------|
|---------------------------------------|
|---------------------------------------|


  D5                      Bb5                 G5                A5
   H                       H                  H                 H
   |                       |                  |                 |
   /                       /                  /                 /

                                              |-3-|
   S  S  S  S  S  S  S  S  S S S S  S S S S   S S S S S S S S S Q     E  E
|-13p10----10-13p10----13-10p6---6-10p6---6-|-4h7p4---4-7p4---4-5tr7--5/----||
|-------10----------10---------6--------6---|-------5-------7--------------o||
|-------------------------------------------|-------------------------------||
|-------------------------------------------|-------------------------------||
|-------------------------------------------|------------------------------o||
|-------------------------------------------|-------------------------------||


  G#       F   E                         F  E  D
   ~~~      ~~~~~~~~~~~~~~~~
                                       |--3--|
   Q        Q   H       +H.            S  S  S  E
|-19-----------------|----------------------------|
|-12h13p12-18--17----|-(17)-----------17h18p17----|
|----------14--13----|-(13)-----------13h14p13-19-|
|--------------------|-------------------------15-|
|--------------------|----------------------------|
|--------------------|----------------------------|
|  E  S  S  Q   H       +H.            S  S  S  E
|                                      |--3--|
|
| Gtr IV
|                                      |--3--|
|  Q        Q   H        H     +E   E  S  S  S  E
|--------------------|----------------------------|
|--9-----------------|----------------------------|
|----------10---9----|---9-----(9)-----9h10p=9----|
|--6-----------------|-------------12----------12-|
|-----------8---7----|---7-------------7h=8p=7----|
|--------------------|-------------------------10-|
   Q        Q   H        H.            S  S  S  E
                                       |--3--|


  E          B                          E  F    G# A  G# A  G# F  E
               ~~~~~~~~~                                           ~~
                                                       |--3--|
   Q   a      +Q    +H        +H.        E  E    E  E  S  S  S  E  H
|-----22b24==(22)--(22)----|-(22)r------------|-16-17-16h17p16----------|
|-17--15b17==(15)--(15)----|-(15)r------17-18-|-12-13-12h13p12-18-17----|
|-13-----------------------|------------13-14-|----------------14-13----|
|--------------------------|------------------|-------------------------|
|--------------------------|------------------|-------------------------|
|--------------------------|------------------|-------------------------|
|  Q   a      +Q    +H        +H.        E  E    E  E  S  S  S  E  H
|                                                      |--3--|
|
|  ~~                ~~~~~~~~~~~~~~                                ~~
|                                                      |--3--|
|  Q   a      +Q    +H        +H.        E  E    E  E  S  S  S  E  H
|--------------------------|------------------|-------------------------|
|-----12b13==(12)r=(12)----|-(12)-------------|--9-10--9h10p=9----------|
|--9-----------------------|-------------9-10-|----------------10--9----|
|------9b11===(9)r==(9)----|--(9)-------------|--6--7--6h=7p=6----------|
|--7-----------------------|-------------7--8-|-----------------8--7----|
|--------------------------|------------------|-------------------------|
   Q   a      +Q    +H        +H.        E  E    E  E  E        E  H


                      Bm        Bm
                        ~~~~~~~~~~~~~~~~~~~
   +Q    +E   E  a     +H        W
|-----------------------------|-----------|
|-(17)--(17)\---12b13-(12)----|-12--------|
|-(13)--(13)\-----------------|-----------|
|----------------------14-----|-12--------|
|-----------------------------|-----------|
|-----------------------------|-----------|
|  +Q    +E   E         H        W
|
|   ~~~~                ~~~~     ~~~~~~~~~~
|  +Q     Q            +H        W
|-----------------------------|-----------|
|-----------------------------|-----------|
|--(9)-----------7b8---(7)----|--7--------|
|----------------9b11--(9)----|--9--------|
|--(7)------------------------|-----------|
|-----------------------------|-----------|
   +Q     Q      a     +H        W


                         C                   F   E
 ~~~~~~                                           ~~
   +H.                     E  E      E  S  S  Q   H
|---------------------------------|-16h17p16-----------|
|-(12)-------------------/17-18---|-12h13p12-18--17----|
|---------------------------------|----------14--13----|
|-(12)----------------------------|--------------------|
|--------------------------6--7---|--------------------|
|---------------------------------|--------------------|
|  +H.                     E  E      E  S  S  Q   H
|
|          \3.5___/
|~~~~~~                                           ~~
|  +H     +E      E        E  E      E  S  S  Q   H
|---------------------------------|--------------------|
|---------------------------------|--9-10p=9-----------|
|--(7)----(7)--------------9-10---|----------10---9----|
|--(9)----(9)----(9)-(9)---0------|--6-----------------|
|-----------------------------7h8-|-----------8---7----|
|---------------------------------|--------------------|
   +H     +E     +S  +S    E  S S    Q        Q   H


                      E  F  E  D    E          B
    ~~~~                                               ~~~~~~~
           |--3--|     |--3--|
   +H      S  S  S  E  S  S  S  E    Q   a      +Q    +H
|---------------------------------|--------------------------|
|-(17)----17h18p17----17h18p17----|-17--15b17==(15)r=(15)----|
|-(13)-------------19-13-------19-|-13----------17----16-----|
|---------------------------------|--------------------------|
|---------------------------------|--------------------------|
|---------------------------------|--------------------------|
|  +H.                 Q             Q           Q     H
|
|   ~~~~                             ~~                ~~~~~~~
|                      |--3--|
|  +H.                 S  S  S  E    Q   a      +Q    +H
|---------------------------------|--------------------------|
|---------------------------------|-----12b13==(12)r=(12)----|
|--(9)-----------------9h10p=9----|--9-----------------------|
|------------------------------12-|------9b11===(9)r==(9)----|
|----------------------7h=8p=7----|--7-----------------------|
|---0--------------------------10-|--------------------------|
    H.                 S  S  S  E    Q   a      +Q    +H
                       |--3--|


                  E  F    G# A  G# A  G# F  E
 ~~~~~~                                      ~~
                                 |--3--|
   +H      +E   E  E  E    E  E  S  S  S  E  H
|-----------------------|-16-17-16h17p16----------|
|-(15)----(15)\---17-18-|-12-13-12h13p12-18-17----|
|-(16)------------13-14-|----------------14-13----|
|-----------------------|-------------------------|
|-----------------------|-------------------------|
|-----------------------|-------------------------|
|  +H.             E  E    E  E  S  S  S  E  H
|                                |--3--|
|
|~~~~~~~~~~~~~~~                             ~~
|                                |--3--|
|  +H      +E   E  E  E    E  E  S  S  S  E  H
|-----------------------|-------------------------|
|-(12)----(12)----------|--9-10--9h10p=9----------|
|------------------9-10-|----------------10--9----|
|--(9)-----(9)----------|--6--7--6h=7p=6----------|
|------------------7--8-|-----------------8--7----|
|-----------------------|-------------------------|
   +H      +E   E  E  E    E  E  S  S  S  E  H
                                 |--3--|


                      Bm
    W                            W            W
    ~~~~                         ~~
   +Q    +Q      a     +H        W            Q    H.
|-----------------------------|-----------|----------------------||
|-(17)--(17)\---12b13-(12)----|-12--------|-------/x\------------||
|-(13)--(13)\-----------------|-----------|----------------------||
|----------------------14-----|-12--------|-(12)-----------------||
|-----------------------------|-----------|----------------------||
|-----------------------------|-----------|----------------------||
|  +Q    +E   E         H        W           +W
|
|                                                          \1.5
|   ~~~~                         ~~           ~~~~
|  +Q    +E   E  a     +H        W            H.          +Q
|-----------------------------|-----------|----------------------||
|-----------------------------|-----------|----------------------||
|--(9)---(9)-----7b9---(7)----|--7--------|-/21----------(21)----||
|----------------9b10--(9)----|--9--------|--(9)-----------------||
|--(7)------------------------|-----------|----------------------||
|-----------------------------|-----------|----------------------||
   +H            a     +H        W           +W


 Double-Time Feel
  A5
  Gtr II
   W
   |
   /

   S  S  S  S  S  S  S  S  S  S  S  S  S  S  S  S
|-------12-16-17-12-13----12----------------------|
|----13----------------15----13-15-12-13----12----|
|-14-------------------------------------14----13-|
|-------------------------------------------------|
|-------------------------------------------------|
|-------------------------------------------------|
|
|  W
|-------------------------------------------------|
|-------------------------------------------------|
|-------------------------------------------------|
|-------------------------------------------------|
|-------------------------------------------------|
|-------------------------------------------------|


   W
   |
   /

   S  S  S  S  S  S  S  S  S  S  S  S  S  S  S  S
|-------12-16-17-12-13----12----------------------|
|----13----------------15----13-15-12-13----12----|
|-14-------------------------------------14----14-|
|-------------------------------------------------|
|-------------------------------------------------|
|-------------------------------------------------|


  E5
   W
   |
   /

   S  S  S  S  S  S  S  S  S  S  S  S  S  S  S  S
|-------12-16-13-16-12-16----16----16-------------|
|----12-------------------15----13----12-13-15-12-|
|-13----------------------------------------------|
|-------------------------------------------------|
|-------------------------------------------------|
|-------------------------------------------------|


  A5
   W
   |
   /

                                       ~~~
   S  S  S  S  S  S  S  S  S  S  S  S  E.  S
|-------12-16-17-12-13----12-----------------|
|----13----------------15----15-13-12--------|
|-14----------------------------------14--13-|
|--------------------------------------------|
|--------------------------------------------|
|--------------------------------------------|


  D5                      Bb5
   H                       H
   |                       |
   /                       /

   S  S  S  S  S  S  S  S  S S S S  S S S S
|-13p10----10-13p10----13-10p6---6-10p6---6--|
|-------10----------10---------6--------6----|
|--------------------------------------------|
|--------------------------------------------|
|--------------------------------------------|
|--------------------------------------------|


  G5                A5
  H                 H
  |                 |
  /                 /

  |-3-|
  S S S S S S S S S S S S S  S S  S  S
|-4h7p4---4-7p4---7-8p5---5-12p8----12-|
|-------5-------5-------5--------10----|
|--------------------------------------|
|--------------------------------------|
|--------------------------------------|
|--------------------------------------|


  D5                      Bb5                  C5                   A5   Em/F#
                                              2/4                  4/4
   H                       H                   H                    W
   |                       |                   |
   /                       /                   /

                                                                            ~
                                               |-3-|
   S  S  S  S  S  S  S  S  S S S S  S S S S    S S S S S S S S S    H    Q  Q
|-13p10----10-13p10----13-10p6---6-10p6---6-||-4h7p4---4-7p4---4-||--------------||
|-------10----------10---------6--------6---||-------5-------7---||--------------||
|-------------------------------------------||-------------------||-2------------||
|-------------------------------------------||-------------------||-2----2--4----||
|-------------------------------------------||-------------------||-0------------||
|-------------------------------------------||-------------------||------3--2----||


 Breakdown
  Tempo II Q=164
      E F#E F# E F#      E F#E      C#      E F#
 4/4
   ~~~      ~
  +E  E E E Q  E E   +E  E E E a    +E  +E  E E
|------------------|----------------------------|
|------------------|----------------------------|
|------------------|-----------6b7==(6)r(6)-----|
|-(4)-2-4-2-4--2-4-|-(4)-2-4-2--------------2-4-|
|------------------|-----------4b5==(4)r(4)-----|
|-(2)-0-2-0-2--0-2-|-(2)-0-2-0--------------0-2-|


      E F#E F# E F#      Bb  B   C#  F#
            ~    ~~~~~~~~            ~
  +E  E E E Q  E E   +E  E E E E E E E
|------------------|-------------------|
|------------------|-------------------|
|------------------|-------------------|
|-(4)-2-4-2-4--2-4-|-(4)-------------4-|
|------------------|-----1---2---4-----|
|-(2)-0-2-0-2--0-2-|-(2)-------------2-|


      E F#E F# E F#      E F#E     C#    E F#
   ~~~      ~
  +E  E E E Q  E E   +E  E E E a   +E  E E E
|------------------|-------------------------|
|------------------|-------------------------|
|------------------|-----------6b7-(6)-6-----|
|-(4)-2-4-2-4--2-4-|-(4)-2-4-2-----------2-4-|
|------------------|-----------4b5-(4)-4-----|
|-(2)-0-2-0-2--0-2-|-(2)-0-2-0-----------0-2-|


      E F#E G F#E F#      Bb  B   C#     A
                                         Gtrs I, IV
                  ~~~~~~~~                ~~
  +E  E E E E E E E   +E  E E E E E E  a  E
|-------------------|-----------------15s17-||
|-------------------|-----------------------||
|-------------------|-----------------------||
|-(4)-2-4-2-5-4-2-4-|-(4)-------------------||
|-------------------|-----1---2---4---------||
|-(2)-0-2-0-3-2-0-2-|-(2)-----------------5-||


 Guitar Solo I
  N.C.(G)
    ~~~~~~~~~~~~~~
   +H          Q.      E    +E   S   S   S   S   S   S   S   S   S   S   S  S  a  E
|-(17)-------(15)----/15-|-(15)-15-(15)-15-(15)-15-(15)-15-(15)-15-(15)-------------|
|--------------------/17-|-(17)-17p=15--17p=15--17p=15--17p=15--17p=15--17p15-15s17-|
|------------------------|----------------------------------------------------------|
|------------------------|----------------------------------------------------------|
|------------------------|----------------------------------------------------------|
|------------------------|----------------------------------------------------------|
|
| Gtr IV
|   ~~~~               ~~~~~~~~~                                                  ~~~
|  +E  E E E   E E E   E    +E   E       E       E       E       E       E        E
|------------------------|----------------------------------------------------------|
|------------------------|----------------------------------------------------------|
|------------------------|----------------------------------------------------------|
|------------------------|----------------------------------------------------------|
|------------------------|-------------------------------8-------7-------5----------|
|--(5)-3-5-3---6p5-3---5-|--(5)--3-------5-------3--------------------------------5-|


    ~~~~
   +W                   S   S   S  S  E  S   S   S   S  S  S  S  S  E
|--------------------|--------------------------------------------------|
|-(17)---------------|-17-(17)----------17-(17)(17)-17-17-------17------|
|--------------------|-15p=14--15p14h15-15p=14h=15-----15-14h15----15---|
|--------------------|--------------------------------------------------|
|--------------------|--------------------------------------------------|
|--------------------|--------------------------------------------------|
|
|~~~~~~
|  +E  E E E E E E E    E       E     E  E       E      E     E     E
|--------------------|--------------------------------------------------|
|--------------------|--------------------------------------------------|
|--------------------|--------------------------------------------------|
|--------------------|--------------------------------------------------|
|--------------------|----------4--------5--------------7---------------|
|--(5)-3-5-3-6p5-3-5-|----------------------------------------------5---|


                                           \1.5
          ~~~~~~~~~~~~~~~~~~~~
   Q     +H.              +E   S  S  Q    +Q       +E  E
|----------------------|---------------------------------|
|----------------------|---------------------------------|
|-14----(14)-----------|-(14)-12h14p12---(12)-----(12)---|
|----------------------|---------------------------------|
|----------------------|---------------------------------|
|----------------------|---------------------------------|
|
|                    ~~~~~~~~~
| +E  E   E  E E E E E    +E   E     E E   E    E   E  E
|----------------------|---------------------------------|
|----------------------|---------------------------------|
|----------------------|---------------------------------|
|----------------------|---------------------------------|
|----------------------|-------------------8----7---5----|
|-(5)-3---5--3-6p5-3-5-|--(5)--3-----5-3---------------5-|


   ~~~                                 ~~                            ~~
   H         S  S  S  S  S  S  S  S    E  S  S  S  S  S  S  S  S  E  Q
|-----------------------------------|-15---------------------------------||
|-----------------14-------14-15h17-|----17p15-14----------14h15---------||
|-----------14h15----14h15----------|-------------15-14h15-------15-14---||
|-14--------------------------------|------------------------------------||
|-----------------------------------|------------------------------------||
|-----------------------------------|------------------------------------||
|
|                                                                      ~
| +E  E E E  E     E     E     E       E  E     E     E     E     E  E E
|-----------------------------------|------------------------------------||
|-----------------------------------|------------------------------------||
|-----------------------------------|------------------------------------||
|-----------------------------------|------------------------------------||
|-----------------------------------|-----4-----------5-----------7----4-||
|-(5)-3-2-3--6p====5-----3-----5----|------------------------------------||


 Guitar Solo II
  N.C.(B)
                  |-3--|
   S   S S  S S S S S  S S  S S  S S  S S  S
|--------9h10p9p7-9p7----7---------7---------|
|--9h=10--------------10---10p9h10---10p9h10-|
|--------------------------------------------|
|--------------------------------------------|
|--------------------------------------------|
|--------------------------------------------|
|
|  ~~~
| +E     E    E   E      E    E    E    E
|--------------------------------------------|
|--------------------------------------------|
|--------------------------------------------|
|--------------------------------------------|
|-(4)----2----4---2------5----4----2----4----|
|--------------------------------------------|


         |-3--| |-3-|
   S   S S  S S S S S  S S  S S S S  S S  S S    S  S  S S  S S S S  S S  S S S S  S S
|--------9h10p9-7h9p7----7-------------9-10-9-|--9p=7------------------9-10-9-9p7-------|
|--9h=10--------------10---10p9-7-9h10--------|-------10p9-10p9-7-9-10------------10p9--|
|---------------------------------------------|-----------------------------------------|
|---------------------------------------------|-----------------------------------------|
|---------------------------------------------|-----------------------------------------|
|---------------------------------------------|-----------------------------------------|
|
|                                         ~~~~~~~~~~
| +E     E      E      E    E   E    E    E     +E     E    E   E    E    E   E    E
|---------------------------------------------|-----------------------------------------|
|---------------------------------------------|-----------------------------------------|
|---------------------------------------------|-----------------------------------------|
|---------------------------7---6----4--------|-----------------------------------------|
|-(4)----2------4------2------------------4---|-(4)----2----4---2----5----4---2----4----|
|---------------------------------------------|-----------------------------------------|


            |-3-|         |-3-|                 |-3-|                 |-3-| |-3-|
   S S S  S S S S S S S S S S S S S S S    S  S S S S S S S S S S S S S S S S S S
|---------------------------------------|-----------------------------------------|
|-10p9p7-10p9p7-6-9p7-6-7p6-----6-------|---------------------------6-6h7h9-6h7h9-|
|---------------------------9p7---9p7p6-|--9--7-6h7p6---------6h7-9---------------|
|---------------------------------------|-------------9-7-6h7---------------------|
|---------------------------------------|-----------------------------------------|
|---------------------------------------|-----------------------------------------|
|
|                                   ~~~~~~~~~~                              ~~~~~~~
|  E   E    E     E   E   E     E   E     +E    E     E   E   E   E   E     E
|---------------------------------------|-----------------------------------------|
|---------------------------------------|-----------------------------------------|
|---------------------------------------|-----------------------------------------|
|---------------------------------------|-----------------------------------------|
|-----------------------------------4---|-(4)---2-----4---2---5---4---2-----4-----|
|------1----------2-------4-------------|-----------------------------------------|


   S  S S  S  S S  S  S  S  S  S  S  S  S  S  S
|--------------------------------------------------|
|-10--7-9-10-12-9-10-12-14p10-12-14-15-12-14-15----|
|--------------------------------------------------|
|--------------------------------------------------|
|--------------------------------------------------|
|--------------------------------------------------|
|
|~~~~~                                     ~~
| +E    E     E    E     E     E     E     E
|--------------------------------------------------|
|--------------------------------------------------|
|--------------------------------------------------|
|------------------------7-----6-----4-------------|
|-(4)---2-----4----2-----------------------4-------|
|--------------------------------------------------|


                                                              ~~~~                 ~~~~
   S   S  S  S  S  S  S  S  S  S  S  S  S  S  S  S    a      +Q     +H          E  E
|-13-----------------------------------------------|-19b21==(19)---(19)r----------14-||
|-----15-13-14-16-13-14-16-17-14-16-17s19-14-17-19-|---------------------------14----||
|--------------------------------------------------|---------------------------------||
|--------------------------------------------------|---------------------------------||
|--------------------------------------------------|---------------------------------||
|--------------------------------------------------|---------------------------------||
|
|  ~~~                                                                             ~~~~
| +E      E     E     E     E     E     E     E               E  E   E   E E E  E  E
|--------------------------------------------------|---------------------------------||
|--------------------------------------------------|---------------------------------||
|--------------------------------------------------|---------------------------------||
|---------------------------0----------------------|---------------------------------||
|-(4)-----2-----4-----2-----------4-----2-----4----|---------------------------------||
|--------------------------------------------------|-------------1-------2---4-----2-||


 Guitar Solo III
       N.C.(E)
 ~~~~~~
   +E  S S  Q    S  S  S  S  S  S  S  S    E   S  S  S  S  S  S  S  S  S  S  S  S  S  S
|-(14)-----15---14h15-12-15----16----15-|-----14-14h15p14-12-14p12-------12----------------|
|---------------------------15----14----|-12-----------------------15p14----14p12-11-14----|
|------x-x------------------------------|--------------------------------------------------|
|---------------------------------------|--------------------------------------------------|
|---------------------------------------|--------------------------------------------------|
|---------------------------------------|--------------------------------------------------|
|
|~~~~~~                            ~~~~~~~~~~~                                     ~~
|  +E  E    E E  E     E     E     E      +E   E     E     E     E     E     E     E
|---------------------------------------|--------------------------------------------------|
|---------------------------------------|--------------------------------------------------|
|---------------------------------------|--------------------------------------------------|
|---------------------------------------|--------------------------------------------------|
|---------------------------------------|------------------------5-----4-----2-------------|
|--(2)-0----2-0--3-----2-----0-----2----|-(2)--0-----2-----0-----------------------2-------|


                              ~~~~~~~~~~                              ~~~~
          |--3--|
   S   S  S  S  S  S  a      +E.    +H           +Q     E   E  a     +h
|---------------------------------------------|-----------/21-21b22-(21)-------|
|-12--11-12p11--------------------------------|--------------------------------|
|--------------14-12-14b16==(14)---(14)-------|-(14)r---0----------------------|
|---------------------------------------------|--------------------------------|
|---------------------------------------------|--------------------------------|
|---------------------------------------------|--------------------------------|
|
|  ~~~                                                                       ~~~
| +E      E        E             E   E  E E E     E   E E   E         E  E E E
|---------------------------------------------|--------------------------------|
|---------------------------------------------|--------------------------------|
|---------------------------------------------|--------------------------------|
|---------------------------------------------|--------------------------------|
|---------------------------------------------|-------1-----2------------4-----|
|-(2)-----0--------2-------------0---3--2-0-2-|------------------------------2-|


   Q     S S  S  S  S S  S S  S  S  S S    S  S  S  S  S S  S S  S  S  S S  S S  S  S
|-21------------------------------------|------------------------------------------------|
|---------------------------------------|------------------------------------------------|
|-------11p9-11-12p11-9-12-9-11-12-11-9-|-12p=9-11-12-11-9-12-9-11-12-11-9-12-9-11-12----|
|---------------------------------------|------------------------------------------------|
|---------------------------------------|------------------------------------------------|
|---------------------------------------|------------------------------------------------|
|
|~~~~~                                                                           ~~
| +E  E  E    E     E    E    E     E     +E     E     E    E    E     E    E    E
|---------------------------------------|------------------------------------------------|
|---------------------------------------|------------------------------------------------|
|---------------------------------------|------------------------------------------------|
|---------------------------------------|------------------------------------------------|
|---------------------------------------|------------------------5-----4----2------------|
|-(2)-0--2----0-----3----2----0-----2---|-(2)----0-----2----0--------------------2-------|


   S  S  S S  Q    Q       +Q          +E  Q    E   Q    Q
|-----------------------------------|------------------------|
|-----------------------------------|------------------------|
|-11--9-11-9------------------------|------x\----------------|
|------------12---12b14---(12)b15---|-(12)-x\----------------|
|-----------------------------------|-------------/16\-------|
|-----------------------------------|------------------------|
|
|  ~~~
| +E     E    E E  E    E   E     E     E  E  E E   E  E E E
|-----------------------------------|------------------------|
|-----------------------------------|------------------------|
|-----------------------------------|------------------------|
|-----------------------------------|----------------------4-|
|-----------------------------------|------1----2------4-----|
|-(2)----0----2-0--3p===2---0-----2-|------------------------|


            H.=H
   W                  W
|-------------------|-----------------||
|-------------------|-----------------||
|-------------------|-----------------||
|-------------------|-----------------||
|-------------------|-----------------||
|-------------------|-----------------||
|
| +E  E E E E E E E   E E E E E E E E
|-------------------|-----------------||
|-------------------|-----------------||
|-------------------|-----------------||
|-(4)-5-4-5-2-5---5-|---5---5---------||
|---------------5---|-4---2---0-2-4-5-||
|-------------------|-----------------||


             Finale
           Andante Q=82
  E5
  Gtr II
  W           +W
  |            |
  /            /

              Gtrs I, V, VI
  W            S   S  S  S  S  S  S  S  S  S  S  S  S  S  S  S
|----------||----/19-17-19-15-19-14-19-12-15-14-15-12-15----15-|
|----------||--------------------------------------------15----|
|----------||--------------------------------------------------|
|----------||--------------------------------------------------|
|----------||--------------------------------------------------|
|----------||--------------------------------------------------|


  Em
  Gtr VI
  W                                       +H               H
  |                                        |
  /                                        /

  S  S  S  S S  S  S  S S S S S S S S S    S S S S S S S S Q  +S  S S S
|-8-12-10-12-8-12----12-5-8-7-8-5-8---8-|--2-5-3-5-2-5---5----------------|
|-----------------12----------------8---|--------------5---4--(4)-0h5p0---|
|---------------------------------------|---------------------------------|
|---------------------------------------|---------------------------------|
|---------------------------------------|---------------------------------|
|---------------------------------------|---------------------------------|


  N.C.
  S S S S  S S  S S  T  T  T T  T  T T T  T T T T T T T T
|---------------------------------------------------------|
|-7p0-8p0-10p0-12p0-13p12-10-8-12-10-8-7-10-8-7-5-8-7-5-4-|
|---------------------------------------------------------|
|---------------------------------------------------------|
|---------------------------------------------------------|
|---------------------------------------------------------|


                                                        ~~~~~~~~~~
  E  E  T  T  T  T  T  T  T  T  T  T  T  T  T  T  T  T  Q     +W
|------19p15-----------------------------------------------|---------*|
|-5s17-------17----17--------------------------------------|---------*|
|---------------16----16-----------------------------------|---------*|
|------------------------17s16-17p16p14s16-17p16p14p13s14--|-(14)----*|
|----------------------------------------------------------|---------*|
|----------------------------------------------------------|---------*|



Duration Legend
---------------
W - whole; H - half; Q - quarter; E - 8th; S - 16th; T - 32nd; X - 64th; a - acciaccatura
+ - note tied to previous; . - note dotted; .. - note double dotted
Uncapitalized letters represent notes that are staccato (1/2 duration)
Irregular groupings are notated above the duration line
Duration letters will always appear directly above the note/fret number it represents the
duration for.  Duration letters with no fret number below them represent rests.  Multi-
bar rests are notated in the form Wxn, where n is the number of bars to rest for.  Low
melody durations appear below the staff

Tablature Legend
----------------
 h   - hammer-on
 p   - pull-off
 b   - bend
 pb  - pre-bend
 r   - bend release (if no number after the r, then release immediately)
 /\  - slide into or out of (from/to "nowhere")
 s   - legato slide
 S   - shift slide
 - natural harmonic
[n]  - artificial harmonic
n(n) - tapped harmonic
 ~   - vibrato
 tr  - trill
 T   - tap
 TP  - trem. picking
 PM  - palm muting
\n/  - tremolo bar dip; n = amount to dip
 \n  - tremolo bar down
 n/  - tremolo bar up
/n\  - tremolo bar inverted dip
 =   - hold bend; also acts as connecting device for hammers/pulls
 <> - volume swell (louder/softer)
 x   - on rhythm slash represents muted slash
 o   - on rhythm slash represents single note slash

Misc Legend
-----------
 |  - bar
||  - double bar
||o - repeat start
o|| - repeat end
*|  - double bar (ending)
 :  - bar (freetime)
 $  - Segno
 &  - Coda
Tempo markers -  = BPM(8/16=s8/s16), where s8 = swing 8ths, s16 = swing 16ths





Comments


Popular Yngwie Malmsteen tabs & chords
Amberdawn Tabs
Anguish And Fear Tabs
Arpeggios From Hell Tabs
Beethoven 5th Symphony Live 1985 Tabs
Dreamin Tabs
Little Savage Tabs
Save Our Love 1 Tabs
Trilogy Suite Intro Tabs
Trilogy Suite Op 5 2 Tabs
What Do You Want Tabs


Song lyrics



↑ Back to top | Tablatures and chords are parodies/interpretations of the original songs. You may use it for private study, scholarship, research or language learning purposes only
© 2014 AZChords.com Contact us | Privacy policy | DMCA | Add/correct tabs | Request tabs | Top 50 tabs