>
 >
Dream On

Dream On Guitar Tabs

Yngwie Malmsteen - Dream On chords, tabs, tablatures, lyrics

Guitar lessons | Add/correct | Request | Top 50 tabs Artists:  A B C D E F G H I J K L M N O P Q R S T U V W X Y Z 0-9

Dream On Guitar Tabs – Yngwie Malmsteen

CD, Sheet music, Poster

Do you like Dream On? Share with your friends now
Tabs
Yngwie Malmsteen

e:-4-----4-----3-----3-----4-----4-----3-----3----|
B:-6-----6-----4-----4-----3-----3-----2-----2----|
G:----5-----5-----5-----5-----5-----5-----5-----5-|
D:------------------------------------------------|
A:------------------------------------------------|
E:------------------------------------------------|


-4-----4-----6-----6------8-----8------8-|
-6-----6-----8-----8------9-----9------9-|
----5-----5-----5-----5------------------|
----------------------------10----10-----|
-----------------------------------------|
-----------------------------------------|

gt1
e:-4-----4-----3-----3-----4-----4-----3-----3----|
B:-6-----6-----4-----4-----3-----3-----2-----2----|
G:----5-----5-----5-----5-----5-----5-----5-----5-|
D:------------------------------------------------|
A:------------------------------------------------|
E:------------------------------------------------|

gt2
e:-17bf----17bf~~~~~~~--------------------------------------------------------------|
B:----------------------20bf--20bf~~~--20-17----------------------------------------|
G:-------------------------------------------20-17-18-17----------------------------|
D:-------------------------------------------------------20-17-18-17-18-17----------|
A:-------------------------------------------------------------------------20-20~~~-|
E:----------------------------------------------------------------------------------|

gt1
-4-----4-----6-----6------8-----8-----6\4-----6-|
-6-----6-----8-----8------9-----9-----8\6-----8-|
----5-----5-----5-----5--------------------5----|
----------------------------10----10------------|
------------------------------------------------|
------------------------------------------------|

gt2
e:-------------------------------------------------------21bf--21-18-19-18-------------18-|
B:-------------------------------------------------------------------------21-18-19-21----|
G:----------15-16-18--17-18-17-------------17-18-17~~~~-----------------------------------|
D:-14-15-17--------------------20-17-18-20------------------------------------------------|
A:----------------------------------------------------------------------------------------|
E:----------------------------------------------------------------------------------------|

gt1
--8-----8-----6\-4-----4--3-----3-----3-----3----|
--9-----9-----8\-6-----6--2--1--2--1--2--1--2--1-|
-----7-----7--------7----------------------------|
-------------------------------------------------|
-------------------------------------------------|
-------------------------------------------------|

gt2
e:-19-18~~~~---------------------15-16-18--17-18-20--18-19-21-21bf--18h19-16h18-14h16--|
B:------------15-16-18--17-18-20-------------------------------------------------------|
G:-------------------------------------------------------------------------------------|
D:-------------------------------------------------------------------------------------|
A:-------------------------------------------------------------------------------------|
E:-------------------------------------------------------------------------------------|

gt2
e:-18h19-16h18-14h16-12h14--10h12--13~~--17h20p17--------------------------------------|
B:------------------------------------------------------20p17-20bf-20b--21-20-18-20-21-|
G:------------------------------------------------19~~~--------------------------------|
D:-------------------------------------------------------------------------------------|
A:-------------------------------------------------------------------------------------|
E:-------------------------------------------------------------------------------------|

gt2
e:--------------------------------------------------------------|
B:-20-18-20-21-20---21-20-18------------------------------------|
G:---------------------------21-20-18---------------------------|
D:------------------------------------20-19-17------------------|
A:----------------------------------------------20-19-17--20~~~-|
E:--------------------------------------------------------------|

verse
everytime time when i look in the mirror...
-4-----4-----3-----3-----4-----4-----3-----3----|
-6-----6-----5-----5-----6-----6-----6-----6----|
----5-----5-----5-----5-----5-----5-----5-----5-|
------------------------------------------------|
------------------------------------------------|
------------------------------------------------|

to play...
-3-----3-----3-----3-----3-----3-----3-----3----|
-2--1--2--1--2--1--2--1--2--1--2--1--2--1--2--1-|
------------------------------------------------|
------------------------------------------------|
------------------------------------------------|
------------------------------------------------|

i know nobody knows...
e:-------------------------------------------------|
B:-------------------------------------------------|
G:-10-10-10-10-10--8-8-8-8-8--6-6-6-6-6--8-8-8-8-8-|
D:-10-10-10-10-10--8-8-8-8-8--6-6-6-6-6--8-8-8-8-8-|
A:-8--8--8--8--8---6-6-6-6-6--4-4-4-4-4--6-6-6-6-6-|
E:-------------------------------------------------|


e:-----------------------------------------------|
B:-9p8-------------------------------------------|
G:-----10-8-10---12b--13b--14b--14p12------------|
D:------------------------------------15~~~------|
A:-----------------------------------------------|
E:-----------------------------------------------|



e:-4-----4-----3-----3-----4-----4-----3-----3----|
B:-6-----6-----4-----4-----3-----3-----2-----2----|
G:----5-----5-----5-----5-----5-----5-----5-----5-|
D:------------------------------------------------|
A:------------------------------------------------|
E:------------------------------------------------|


-4-----4-----6-----6------8-----8------8-|
-6-----6-----8-----8------9-----9------9-|
----5-----5-----5-----5------------------|
----------------------------10----10-----|
-----------------------------------------|
-----------------------------------------|


e:-18--16-15----------15-------16-15----|
B:------------16----------18bf-------18-|
G:----------------17--------------------|
D:--------------------------------------|
A:--------------------------------------|
E:--------------------------------------|


verse
half my life in books written pages...
-4-----4-----3-----3-----4-----4-----3-----3----|
-6-----6-----5-----5-----6-----6-----6-----6----|
----5-----5-----5-----5-----5-----5-----5-----5-|
------------------------------------------------|
------------------------------------------------|
------------------------------------------------|


sing with me sing for the years...
e:-------------------------------------------------|
B:-------------------------------------------------|
G:-10-10-10-10-10--8-8-8-8-8--6-6-6-6-6--8-8-8-8-8-|
D:-10-10-10-10-10--8-8-8-8-8--6-6-6-6-6--8-8-8-8-8-|
A:-8--8--8--8--8---6-6-6-6-6--4-4-4-4-4--6-6-6-6-6-|
E:-------------------------------------------------|

:----------------------------------------------------------------------|
:----------------------------------------------------------------------|
:----------------------------------------------------------------------|
:----------------------------------------------------------------------|
:-8-8-8-8-8-8--10-10-10-10-10-10--11-11-11-11-11-11--13-13-13-13-13-13-|
:----------------------------------------------------------------------|


      repeat               repeat            repeat              repeat
e:----16-19-16h18p16-|-------------------|-------------------|-------------------|-------
B:-19----------------|-16-19-16h18p16----|-------------------|-------------------|-------
G:-------------------|----------------18-|-16-19-16h18p16----|-------------------|-------
D:-------------------|-------------------|----------------19-|-16-19-16h18p16----|-------
A:-------------------|-------------------|-------------------|----------------19-|-------
E:-------------------|-------------------|-------------------|-------------------|-------

e:-----------------------------------------------|
B:-----------------------------------------------|
G:-----------------------------------------------|
D:-----------------------------------------------|
A:-16-19-16h18p16--------------------------------|
E:----------------19-16h18p16--18-16-18-16-18-16-|


:-14~~~~~~---14-12h14p12-------------------------------------------------------------------|
:------------------------15-12h14p12-------15-12h14p12-------15-12-14-12-------------------|
:------------------------------------15p12-------------15p12-------------15p12-14-12-14-14b|
:------------------------------------------------------------------------------------------|
:------------------------------------------------------------------------------------------|
:------------------------------------------------------------------------------------------|

e:-------12-15~~~~~-15b~~~---14-15-14--15-16-15--15-17-15--19-20-19--18-19-18--15-17-15--|
B:----15---------------------------------------------------------------------------------|
G:-14------------------------------------------------------------------------------------|
D:---------------------------------------------------------------------------------------|
A:---------------------------------------------------------------------------------------|
E:---------------------------------------------------------------------------------------|

e:----------------------------------18-21bf--18-19-18----18-18-----------------------------|
B:-18-15-17-18-17-15--18b--18-19-21-------------------21-----------------------------------|
G:-----------------------------------------------------------------9-7h8p7---7-9-7h8p7---7-|
D:-------------------------------------------------------------------------9-----------9---|
A:-----------------------------------------------------------------------------------------|
E:-----------------------------------------------------------------------------------------|

e:-----------------------------------------------------------------------------------------|
B:-----------------------------------------------------------------------------------------|
G:----------------------14-16-14-16-14----14-17-14-16-14----14-17-14-16-14---14-17-14-16-14|
D:-9-7h8p7-7-8-8----/17----------------17----------------17----------------17--------------|
A:-----------------------------------------------------------------------------------------|
E:-----------------------------------------------------------------------------------------|

:----------------------------------------|
:----------------------------------------|
:----14-16-14-16-14-16-14-16-16b~~~~~~~--|
:-17-------------------------------------|
:----------------------------------------|
:----------------------------------------|

sing with me sing for the years...
e:-------------------------------------------------|
B:-------------------------------------------------|
G:-10-10-10-10-10--8-8-8-8-8--6-6-6-6-6--8-8-8-8-8-|
D:-10-10-10-10-10--8-8-8-8-8--6-6-6-6-6--8-8-8-8-8-|
A:-8--8--8--8--8---6-6-6-6-6--4-4-4-4-4--6-6-6-6-6-|
E:-------------------------------------------------|

:----------------------------------------------------------------------|
:----------------------------------------------------------------------|
:----------------------------------------------------------------------|
:----------------------------------------------------------------------|
:-8-8-8-8-8-8--10-10-10-10-10-10--11-11-11-11-11-11--13-13-13-13-13-13-|
:----------------------------------------------------------------------|

e:-------------------------------|
B:-------------------------------|
G:-------------------------------|
D:-------------------------------|
A:-------------------------------|
E:-9-8-9-8-9-8-9-8-9-8-9-8-9-8-9-|

dream on dream on...
e:--------------------------------------------------------|
B:--------------------------------------------------------|
G:-3-3-3-3-3-3-3--5-5-5-5-5-5-5--6-6-6-6-6-6--8-8-8-8-8-8-|
D:-3-3-3-3-3-3-3--5-5-5-5-5-5-5--6-6-6-6-6-6--8-8-8-8-8-8-|
A:-1-1-1-1-1-1-1--3-3-3-3-3-3-3--4-4-4-4-4-4--6-6-6-6-6-6-|
E:--------------------------------------------------------|


e:--------------------------------------------------------|
B:--------------------------------------------------------|
G:--------------------------------------------------------|
D:-3-3-3-3-3-3-3--5-5-5-5-5-5-5--6-6-6-6-6-6--8-8-8-8-8-8-|
A:-3-3-3-3-3-3-3--5-5-5-5-5-5-5--6-6-6-6-6-6--8-8-8-8-8-8-|
E:-1-1-1-1-1-1-1--3-3-3-3-3-3-3--4-4-4-4-4-4--6-6-6-6-6-6-|

e:-------------------------------|
B:-------------------------------|
G:-------------------------------|
D:-------------------------------|
A:-------------------------------|
E:-9-8-9-8-9-8-9-8-9-8-9-8-9-8-9-|

sing with me sing for the years...
e:-------------------------------------------------|
B:-------------------------------------------------|
G:-10-10-10-10-10--8-8-8-8-8--6-6-6-6-6--8-8-8-8-8-|
D:-10-10-10-10-10--8-8-8-8-8--6-6-6-6-6--8-8-8-8-8-|
A:-8--8--8--8--8---6-6-6-6-6--4-4-4-4-4--6-6-6-6-6-|
E:-------------------------------------------------|

e:-------------------------------|
B:-------------------------------|
G:-------------------------------|
D:-------------------------------|
A:-------------------------------|
E:-9-8-9-8-9-8-9-8-9-8-9-8-9-8-9-|

3:07
:------------------------------------------------------------------------------------------|
:------------------------------15-16-18--17-18-20--16-17-19--15-16-18-16-15----------------|
:-14-15-17--15-16-18--17-18-20----------------------------------------------18-15-16-18-16-|
:------------------------------------------------------------------------------------------|
:------------------------------------------------------------------------------------------|
:------------------------------------------------------------------------------------------|

e:-----------------------------------------21bf---12-----12-----12-------------------------|
B:---------------------------------------------------15b----15b----15-12----12-------------|
G:-15--------------------------------------------------------------------15----15-14-14b~~-|
D:----18-15-16-18-16-15--------------------------------------------------------------------|
A:----------------------18-15-16-18-16-15--------------------------------------------------|
E:-----------------------------------------------------------------------------------------|

3:20
e:----------------------------------------17-18-20-17-20b-17-------------------------------|
B:-14-15-17--15-16-18--16-17-19--17-18-20--------------------20-17-18-20-18-17-18-17-------|
G:-----------------------------------------------------------------------------------20-17-|
D:-----------------------------------------------------------------------------------------|
A:-----------------------------------------------------------------------------------------|
E:-----------------------------------------------------------------------------------------|

e:----------------------------------------------------------------------------------------|
B:----------------------------------------------------------------------------------------|
G:-18-20-18-17----------------------------------------------------------------17-18-17-18-|
D:-------------20-17-18-20-18-17-------------------------17-18-17-18-20-17-20-------------|
A:-------------------------------20-17-18-20-18-17-18-20----------------------------------|
E:----------------------------------------------------------------------------------------|

e:---------------------------------------------------------------|
B:----------17-18-17-20-17-18-17-20-17-18-17-20--20-20bf-20b-----|
G:-20-17-20------------------------------------------------------|
D:---------------------------------------------------------------|
A:---------------------------------------------------------------|
E:---------------------------------------------------------------|





Comments


Popular Yngwie Malmsteen tabs & chords
Leonardo Bass Tabs
Queen In Love Bass Tabs
Black Star 1 Tabs
Brothers Tabs
Ces't La Vie Tabs
Child In Time Tabs
Forever Is A Long Tabs
Heavens Tonight Tabs
Memories Tabs
Queen In Love Tabs


Song lyrics



↑ Back to top | Tablatures and chords are parodies/interpretations of the original songs. You may use it for private study, scholarship, research or language learning purposes only
© 2014 AZChords.com Contact us | Privacy policy | DMCA | Add/correct tabs | Request tabs | Top 50 tabs