» » »

Yngwie Malmsteen, Damnation Game Tabs (ver.1)

Artists:  A B C D E F G H I J K L M N O P Q R S T U V W X Y Z # 

Damnation Game Tabs (ver.1)

Yngwie Malmsteen Tabs
Rating:
0/5 (0 votes)
Damnation Game lessons Tabs too difficult? Try these video lessons and learn fast
                Yngwie Malmsteen's Rising Force

Song's set to 1/2 step down.  

                            

|-----------------------------------------------------------------------------------------|
|-----------------------------------------------------------------------------------------|
|-9---------10--------9-----7---------9---------7-----5---------7---------7-----4~-5~-7~--|
|-7-7-7-7-7-7-7-7-7-7-7-7-7-7-7-7-7-7-7-7-7-7-7-7-7-7-7-7-7-7-7-7-7-7-7-7-5-7-7-5~-7~-9~--|
|-----------------------------------------------------------------------------------------|
|-----------------------------------------------------------------------------------------|

|-----------------------------------------------------------------------------------------|
|-----------------------------------------------------------------------------------------|
|-9---------10--------9------10~-12~-10h12p10-9~-7~-5~-7~~--------------------------------|
|-7-7-7-7-7-7-7-7-7-7-7-7-7---------------------------------------------------------------|
|-----------------------------------------------------------------------------------------|
|-----------------------------------------------------------------------------------------|

|-----------------------------------------------------------------------------------------|
|-----------------------------------------------------------------------------------------|
|-9---------10--------9-----7---------9---------7-----5---------7---------7-----4~-5~-7~--|
|-7-7-7-7-7-7-7-7-7-7-7-7-7-7-7-7-7-7-7-7-7-7-7-7-7-7-7-7-7-7-7-7-7-7-7-7-5-7-7-5~-7~-9~--|
|-----------------------------------------------------------------------------------------|
|-----------------------------------------------------------------------------------------|

|-----------------------------------------------------------------------------------------|
|-----------------------------------------------------------------------------------------|
|-9---------10--------9------10~-12~-10h12p10-9~-7~-5~-7~~-5------------------------------|
|-7-7-7-7-7-7-7-7-7-7-7-7-7---------------------------------------------------------------|
|-----------------------------------------------------------------------------------------|
|-----------------------------------------------------------------------------------------|

                            

|-----------------------------------------------------------------------------------------|
|-----------------------------------------------------------------------------------------|
|-9---------10--------7-----9---------7---------10----------------------------------------|
|-7-7-7-7-7-7-7-7-7-7-7-7-7-7-7-7-7-7-7-7-7-7-7-7-7-7-------------------------------------|
|-----------------------------------------------------------------------------------------|
|-----------------------------------------------------------------------------------------|

|-----------------------------------------------------------------------------------------|
|-----------------------------------------------------------------------------------------|
|-9---------10--------7-----9---------7---------10----------------------------------------|
|-7-7-7-7-7-7-7-7-7-7-7-7-7-7-7-7-7-7-7-7-7-7-7-7-7-7-------------------------------------|
|-----------------------------------------------------------------------------------------|
|-----------------------------------------------------------------------------------------|

|-----------------------------------------------------------------------------------------|
|-----------------------------------------------------------------------------------------|
|-9---------7---------5-----7---------5---------4-----7---------5---------4---------------|
|-5-5-5-5-5-5-5-5-5-5-5-5-5-5-5-5-5-5-5-5-5-5-5-5-5-5-3-3-3-3-3-3-3-3-3-3-3-3-3--5~-5~----|
|--------------------------------------------------------------------------------3~-2~----|
|-----------------------------------------------------------------------------------------|  All x2



|-----------------------------------------------------------------------------------------|
|-----------------------------------------------------------------------------------------|
|---------------------------4~-----------------3-2----------------------------------------|
|----6~---------------------5~---------------------5-3-3h5p3-2-----------10~-9~-10~-------|
|----7~--0-0-0-0-0-2-3-0-2~~~~-3-3-3-3-3-3~~-4-----------------4-5~--9~-------------------|
|-4~~~~----------------------------------------------------------5~-----------------------|
            
Submit corrections

comments powered by Disqus
↑ Back to top | Yngwie Malmsteen Tabs for Damnation Game. Lyrics for acoustic guitar and electric guitar. Tablatures and chords are parodies/interpretations of the original songs. You may use it for private study, scholarship, research or language learning purposes only