>
 >
Crying

Crying Guitar Tabs

Yngwie Malmsteen - Crying chords, tabs, tablatures, lyrics

Guitar lessons | Add/correct | Request | Top 50 tabs Artists:  A B C D E F G H I J K L M N O P Q R S T U V W X Y Z 0-9

Crying Guitar Tabs – Yngwie Malmsteen

CD, Sheet music, Poster

Do you like Crying? Share with your friends now
Bass TabsTabs
Hope you like it !!
(/distortion...)


|---------------------|-------------10~-----------|------------------------|
|---------------------|----------11-----13-11-10--|11-13-11-10-11-13~------|
|12*---7~-------------|-------12------------------|------------------------|
|---------------------|----12---------------------|------------------------|
|---------------------|-10------------------------|------------------------|
|---------------------|---------------------------|------------------------|
|                     |                           |                        |
|rhythm fig 1         |                           |                        |
|-3------5------6-----|-8------6------5-----------|3------5-----6----------|
|---3------3------3---|---6------6------6---------|--4-----4------4--------|
|-----0------0--------|-----0------0--------------|----0-----0-------------|
|---------------------|---------------------------|------------------------|
|---------------------|---------------------------|------------------------|
|---------------------|---------------------------|------------------------|


|-11~------------------------|--10-11-10-8-------8~---|-----11s15-----14---|
|----------------------------|-------------11-10----8-|--------------------|
|----------------------------|------------------------|--------------------|
|----------------------------|------------------------|--------------------|
|----------------------------|------------------------|--------------------|
|----------------------------|x-----------------------|--------------------|
|                            |                        |                    |
|                            |                        |                    |
|--8------6------5-----------|3------5-----6----------|8-----6------5------|
|----6------6------6---------|--3-----3------3--------|--6-----6------6----|
|------0------0--------------|----0-----0-------------|----0-----0---------|
|----------------------------|------------------------|--------------------|
|----------------------------|------------------------|--------------------|
|----------------------------|------------------------|--------------------|

Continue rhythm pattern


|-15~--15s11-10-----|---------------|-10h11p10----10-------------------10h11 
|---------------13--|----13s16------|----------13----11-13-10----10h11------ 
|-------------------|---------------|-------------------------12------------ 
|-------------------|---------------|--------------------------------------- 
|-------------------|---------------|--------------------------------------- 
|-------------------|---------------|--------------------------------------- 


|-10-------------|-------10-13-11-10-----11p10-------10---------------------
|----13-11-10----|----11-------------13--------13-11----13p11-10-13-11-10---
|----------------|-12-------------------------------------------------------
|----------------|----------------------------------------------------------
|----------------|----------------------------------------------------------
|----------------|----------------------------------------------------------


---------------------|------------------|--------------------------10-11p10~
---11-10-------10----|------------------|-----------------10-11-13----------
12-------12-11----11-|-12~--7-7-7-7-7~--|---------8-10-12-------------------
---------------------|------------------|-8-10-12---------------------------
---------------------|------------------|-----------------------------------
---------------------|------------------|-----------------------------------


---------------------------------|---------------------10-14s15-10---------|
13-11-10-------------------------|------------10-13-11-------------11------|
---------12-11p10----------------|--------12*------------------------------|
------------------13-12-10-------|----12*----------------------------------|
---------------------------13-12-|-10--------------------------------------|
---------------------------------|-----------------------------------------|


|----10---------10-------------|------------------|
|-13----13~--11----11-13-10----|----10------------|
|---------------------------10-|-12----10-12-7s5~-|
|------------------------------|------------------|
|------------------------------|------------------|
|------------------------------|------------------|


|------------------------|---------------13p|10--------|-------------------|
|-----------------10-14s-|15~---------------|----------|-------------------|
|--------10-11-13--------|------------------|----------|-------------------|
|----12*-----------------|------------------|----------|-------------------|
|12*---------------------|------------------|----------|-------------------|
|------------------------|------------------|----------|-------------------|
|                        |                  |          |                   |
|rhythm fig 2            |                  |          |                   |
|------------------------|------3--5--------|------6---|-------------------|
|------------------------|----3------6------|----6---6-|------8-7----------|
|------------------------|--3----------5----|--7-------|----8-----7--------|
|------------------------|5--------------7--|8---------|--8---------7------|
|------------------------|------------------|----------|6-------------5----|
|------------------------|------------------|----------|-------------------|


|-11p10-10~--------|----------------|--------------------------------------|
|-----------13-11--|11-10-----------|--------------------------------------|
|------------------|------12~-------|--------------------------------------|
|------------------|----------------|-------------8--7--5------------------|
|------------------|----------------|----------------------8---------------|
|------------------|----------------|--------------------------------------|
|                  |                |                                      |
|                  |                |                                      |
|-------3-5--------|------3-5-------|----------6---------------------------|
|-----3-----3------|----3-----6-----|-------6------------------------------|
|---3---------3----|--3---------5---|----7--------7~-----------------------|
|-5-------------3--|5-------------7-|-8-----------------8------------------|
|------------------|----------------|----------------------8---------------|
|------------------|----------------|--------------------------------------|


|----------------|----------------------------|----------------------------|
|----------------|----------------------------|-8--------------------------|
|----------------|----------------------------|----8-----------------------|
|---------4--7---|8s7-5~-------------------8--|-------8--------------------|
|-6--------------|----------------------------|----------------------------|
|----------------|----------------------------|----------------------------|
|                |                            |                            |
|                |                            |                            |
|----------------|------3-3h5p3---------------|----------------------------|
|-------8--7-----|----3---------4p3-3h4p3-----|--------8-------------------|
|-----8------7---|--3---------------------5p3-|----8---------8-------------|
|---8----------7-|5---------------------------|--8---8----8-----8----------|
|-6--------------|----------------------------|6---------------------------|
|----------------|----------------------------|----------------------------|


|----------------|-----------------|-----------------|---------------------|
|----------------|-----------------|-----------------|---------------------|
|----------5-7---|-8~--p-7--5~-----|-----------------|------------------7-8|
|----5-7-8-------|-----------------|--------8p7-5----|-----------7-8-10----|
|6-8-------------|-----------------|--------------8--|-6-------------------|
|----------------|-----------------|-----------------|---------------------|
|                |                 |                 |                     |
|rhythm fig 3    |                 |                 |                     |
|----------------|----------3------|-----------------|---------------------|
|--------------6-|------3-4---4----|------3--------6-|8-----------8--------|
|----8-------7---|----5---------5--|----5--------7---|--8---8---8------8---|
|--8---8---8-----|--5--------------|--5--------8-----|----8---8------------|
|6-------5-------|3----------------|3--------5-------|---------------------|
|----------------|-----------------|-----------------|---------------------|


|-----------------|-----------------|11--------8--------------|
|-----------------|----8--10~-------|-------------------------|
|--9~-------------|10---------------|----11----------10-------|
|-----------------|-----------------|-------------------------|
|-----------------|-----------------|-------------------------|
|-----------------|-----------------|-------------------------|
|                 |                 |                         |
|                 |                 |                         |
|--------8--------|--------5--------|-------5-s-8-------------|
|5-----5---5------|------6---6------|-----4--------7----------|
|--5---------5----|----5-------5----|---5------------8--------|
|----5---------5--|--7-----------7--|-4----------------7------|
|-----------------|8----------------|-------------------------|
|-----------------|-----------------|-------------------------|

cont rhythm fig 3


---8----------------------|----------------------------|-------------------|
11---11-10-8--------------|----------------------------|-------------------|
-------------10-8-7-------|----------------------------|----------8p7------|
---------------------10~--|----8-7-----8--7h8p7--------|--------8----------|
--------------------------|--------10------------10--8-|6h8--10------------|
--------------------------|----------------------------|-------------------|


------------------------|-------------------------10|12~--10h12-10s8~------|
11s10-8-----------------|---------------10-11-13----|----------------------|
--------7-8-7h8p7-------|-s12--------12-------------|----------------------|
------------------10-8--|---------12----------------|----------------------|
------------------------|---------------------------|----------------------|
------------------------|---------------------------|----------------------|

                                                             play rhy fig 1
---13-------|14p11----------------11-------------------------|--------------|
------------|------13----------13----13p10----------------10-|-8------------|
------------|---------14-11-14-------------11----------11----|---------12-11|
------------|---------------------------------13-10p13-------|--------------|
------------|------------------------------------------------|--------------|
------------|------------------------------------------------|--------------|


|--------------------|-------------------------------|---------------------|
|--------------------|-------------------------------|13-15-16~--15--13----|
|-12-7-8----7--------|-----------------------12h14-15|-------------------15|
|--------10---8-10-7-|8h10p8p7------10s12-13-15------|---------------------|
|--------------------|----------10-------------------|---------------------|
|--------------------|-------------------------------|---------------------|


|-------------------------|----------------|-------------s10-9-10s15-14----|
|-------------------------|------------8-7-|8~--11-10-11-------------------|
|--15--14--14s12--12s7--7s|5~--------7-----|-------------------------------|
|-------------------------|------5-8-------|-------------------------------|
|-------------------------|----------------|-------------------------------|
|-------------------------|----------------|-------------------------------|


|15~--s11-10------------------|----------------|-----------------|
|------------13-11-10-------10|----------------|-----------------|
|---------------------12-11---|-12~--10--------|s7-8-7-----------|
|-----------------------------|----------------|-----------------|
|-----------------------------|----------------|-----------------|
|-----------------------------|----------------|-----------------|
|                             |                |                 |
|                             |                |                 |
|-----------------------------|------3-5-------|-----6-----------|
|-----------------------------|----3-----6-----|-------6-6-------|
|-----------------------------|--3---------5---|--7--------7-----|
|-----------------------------|5-------------7-|8------------8---|
|-----------------------------|----------------|----------------6|
|-----------------------------|----------------|-----------------|


|----------------------------|------------------|------------------------10-
|----------------------------|------------------|------------11-10-13-11----
|----------------------------|------------------|---12-11-12----------------
|10-8-10-8-7----8-7-8-7------|5---7---8---10----|12-------------------------
|------------10---------10-9-|--5---5---5----5--|---------------------------
|----------------------------|------------------|---------------------------
|                            |                  |
|                            |                  |
|----------------------------|------3--5h6-5--3-|------3-5------------------
|---------8--7---------------|----3-------------|----3-----6----------------
|---------------7------------|--3---------------|--3---------5--------------
|---8--8-----------7---------|5-----------------|5-------------7------------
|-6--------------------------|------------------|---------------------------
|----------------------------|------------------|---------------------------


|-15-14-15-10-11----|10-------------------------|
|----------------13-|---11-13-10-11----10-------|
|-------------------|---------------12----12----|
|-------------------|------------------------12~|
|-------------------|---------------------------|
|-------------------|---------------------------|
|                   |                           |
|                   |                           |
|-------------------|----------8--6-------------|
|-------------------|-----6---------------------|
|-------------------|---7-----------------------|
|-------------------|-8-------------------------|
|-------------------|---------------------------|
|-------------------|---------------------------|


|----------------------------|---------------------------------------------|
|----------------------------|---------------------------------------------|
|8-7h8p7------7-5h7p5--------|---------------------------------------------|
|--------10-8---------8-7h8p7|--5---7----8----------10s12------------------|
|----------------------------|----5---5----5-------------------------------|
|----------------------------|---------------------------------------------|
|                            |                                             |
|                            |                                             |
|----------------------------|----------3---5h6-5----3---------------------|
|--------8--7----------------|-------3--------------------3----------------|
|--------------7-------------|----3----------------------------------------|
|--8--8-----------7----------|-5-------------------------------------------|
|6-------------------5-------|---------------------------------------------|
|----------------------------|---------------------------------------------|


cont rhythm fig 3

|---------------------|---------------------10-|--11~-10h11p10-------------|
|---------------------|-----11--10h11p10-------|-----------------13--------|
|---8~--------------10|12~---------------12----|---------------------------|
|----------10-12-13---|------------------------|---------------------------|
|-------13------------|------------------------|---------------------------|
|---------------------|------------------------|---------------------------|


10-8h10p8-------8---------|----------|-12*----------------|--5-8p5---------|
----------11-10---11-10-7-|-8~----8--|--------------------|6-------6-----8-|
--------------------------|-----7----|-----12*-------12s5-|----------5~----|
--------------------------|----------|----------10~-------|----------------|
--------------------------|----------|--------------------|----------------|
--------------------------|----------|--------------------|----------------|


--8s11-10p11p8--11-6-11----11---11---|---------6-------8-------10----------|
7-----------------------10----8----7~|10p8p7h8---8p7h8---8p7h8----8p7-8----|


-------------------------------------|-------------------------------------|
-------------------------------------|-------------------------------------|
-------------------------------------|-------------------------------------|
-------------------------------------|-------------------------------------|

                                   1/2                            1/2
11~------8-10-11--10h11p10-8-----|-----------------------|-----------------|
-------8----------------------11-|-10br------------------|-----------------|
-----8---------------------------|---------10--8~---7h8p7|-----------------|
---------------------------------|-----------------------|10~--8-7br-------|
---------------------------------|-----------------------|-----------------|
---------------------------------|-----------------------|-----------------|

-----------------------|---------|-----------------------------------------|
-----------------------|---------|-----------------------------------------|
--------------10--7--9-|-9~------|-7h10h12-------10~-----------------------|
--------7--8-----------|---------|-----------------------------------------|
10~--------------------|---------|-----------------------------------------|
-----------------------|---------|-----------------------------------------|

                         distortion
|-----------------------|-----------------|---------10---------------------|
|11-10-8-7--------------|-----------------|10-11-13-----13h15~-------------|
|----------10-8-7-------|12~--------------|--------------------------------|
|-----------------10-8-7|-----------------|--------------------------------|
|-----------------------|-----------------|--------------------------------|
|-----------------------|-----------------|--------------------------------|
|                       |                 |                                |
|                       |                 |                                |
|----------5s6--5-3s2-s-|3-----5------6---|-8------6-------5---------------|
|-------4---------------|--3-----3------3-|---6------6-------6-------------|
|----5------------------|----0-----0------|-----0------0-------------------|
|-4---------------------|-----------------|--------------------------------|
|-----------------------|-----------------|--------------------------------|
|-----------------------|-----------------|--------------------------------|


continue rhythm
                                            1/2
-----10-13-14-13-11s10----------------10|------------|------------10-------|
15~s-------------------13p11p10-11h13---|13p11-10br--|-10---11-13----13s15-|
----------------------------------------|------------|---------------------|
----------------------------------------|------------|---------------------|
----------------------------------------|------------|---------------------|
----------------------------------------|------------|---------------------|

1/2              1/2
----------15-14-15br--|-------14-15-14s15-17-14s15-17-18-15s17-18-20-17s18--
15b~------------------|-13-15-----------------------------------------------
----------------------|-----------------------------------------------------
----------------------|-----------------------------------------------------
----------------------|-----------------------------------------------------
----------------------|-----------------------------------------------------


20-20bf--|
---------|
---------|
---------|
---------|
---------|


|20bf----------|--------------|--------------------------------------------|
|--------------|18bf~---------|15h18p15-----------x----x-------13bf--------|
|--------------|--------------|---------17bf-------------------------------|
|--------------|--------------|--------------------------------------------|
|--------------|--------------|--------------------------------------------|
|--------------|--------------|--------------------------------------------|
|              |              |                                            |
|pickscrapes   |              |                                            |
|--------------|--------------|--------------------------------------------|
|--------------|--------------|--------------------------------------------|
|x-------------|--------------|--------------------------------------------|
|--------------|------5~------|---------8----------------------------------|
|----x---------|--------------|---------8-----------------3-------5--------|
|--------------|-3-----------5|--6----------------6------------------------|

 1 1/2 full                       1/2
|--------------------------------|----------------------------10-11-13s15---
|13br-------13-11-15-13~---11-10-|10b----------------10-11-13---------------
|--------------------------------|----12----12-11-12------------------------
|--------------------------------|-------12---------------------------------
|--------------------------------|------------------------------------------
|--------------------------------|------------------------------------------
|                                |
|                                |
|--------------------------------|------------------------------------------
|--------------------------------|------------------------------------------
|--------------------------------|------------------------------------------
|-------------7~------4~---------|-5~---------------------------------------
|-6p5----------------------------|-----------5~-----------------------------
|--------------------------------|-----------------------------6~-----------


|13p11----------------------------------------|
|-------15-13-11------------------------------|
|----------------14-12-11-14p12p11----12p11---|
|----------------------------------12---------|
|---------------------------------------------|
|---------------------------------------------|
|                                             |
|                                             |
|---------------------------------------------|
|---------------------------------------------|
|---------------------------------------------|
|---------------------------------------------|
|---------------------------------------------|
|----------------------5~---------------------|




----------------------------|--------------------------------|
----------------------------|-----------------------8-7-11---|
----------------------------|-------------------8-7----------|
12s8~---7--7h8--7-----7s5---|---------------8-7--------------|
------------------10--------|-5-----10-9-10------------------|
----------------------------|--------------------------------|
 
 
---8-----10-10--11p10p8--------8---------11-10p8---------------------------|
10---11------------------11-10---11p10-8---------11-10-8s7h8h10p8p7--------|


8p7------------------------------------------------------------------------|
----10p8-7-11p10-8s7----8p7------8p7---------------------------------------|
---------------------10-----10p8-----10p8p7-10p8p7----8p7------------------|
---------------------------------------------------10------10bf------------|


-----------------------------|--------------------------8------------------|
-----------------------------|8-10-11-10-8----8-10-11bf---11bf~-11bf-------|
-----------------------7-8-10|-------------10------------------------------|
------7-5-7-5-7~--8-10-------|---------------------------------------------|
10~--------------------------|---------------------------------------------|
-----------------------------|---------------------------------------------|


-------15-17-18~--11p10p8----------------------------|----------------------|
----15--------------------11-10-8p7--------8p7-------|----------------------|
------------------------------------10p8-7-----10p8p7|8p7-----------7-5bf---|
s17--------------------------------------------------|----10-8-8h10------8-7|
-----------------------------------------------------|----------------------|
-----------------------------------------------------|----------------------|

                                                      1/2
-------------|----------------------10-13--|-13s15~--17br~---18bfr---------|
-------------|----------11-10-13-11--------|-------------------------------|
-------------|-------12--------------------|-------------------------------|
8~----8s10~--|-10s12-----------------------|-------------------------------|
-------------|-----------------------------|-------------------------------|
-------------|-----------------------------|-------------------------------|

hold bend                     1/2
20bf------21--|-20bf~-r--s17--17b--r17-|17---------------------------------|
--------------|------------------------|---15------------------------------|
--------------|------------------------|------17-15-14-15~-s---------------|
--------------|------------------------|-----------------------------------|
--------------|------------------------|-----------------------------------|
--------------|------------------------|-----------------------------------|


--------------------|------------------------------------------------------|
-----13bfr--13~-----|------------------------------------------------------|
---x----------------|---------10bfr---10--8--10--8------7------------------|
-x------------------|------x-----------------------------------------------|
--------------------|---x--------------------------------------------------|
--------------------|------------------------------------------------------|


----------------------------------8-------8-10----8-10-11--|
--------------------------8-10-11---10-11------11----------|
--------------7s8---10h11----------------------------------|
--8~---7-8-10----------------------------------------------|
-----------------------------------------------------------|
-----------------------------------------------------------|


8-10-11s13-10-11-13-11-10-13s15-13h15p11-13-15-13-11-15s17-15p13-15h17------

               1/2       1/2
17p15p13------17b-|-17~--17br--17p15-14h15p14-------------------------------
----------16------|---------------------------16-15-13----------------------
------------------|------------------------------------15-14-12s11-12p11----
------------------|---------------------------------------------------------
------------------|---------------------------------------------------------
------------------|---------------------------------------------------------


------|-----------------------------------------------|
------|-----------------------------------------------|
------|-12p11----------------------------------11-12~-|
13-12-|-------13-12p10----12-10------------12---------|
------|----------------13-------13-12-10~-------------|
------|-----------------------------------------------|

           1/2
------------------|-----------------10-15-13-11s10-13p11p10----11-10-------|
10~-------10brb---|--------------11-------------------------13-------13----|
------------------|--x---12~--12-------------------------------------------|
------------------|--------------------------------------------------------|
------------------|--------------------------------------------------------|
------------------|--------------------------------------------------------|

             3/4                                 1/2
-----------------|----------------10-15-14-15-17-17b-|-17~---------18bf----|
11-10~------10br-|-----------------------------------|---------------------|
-----------------|-12~--12h14h15---------------------|---------------------|
-----------------|-----------------------------------|---------------------|
-----------------|-----------------------------------|---------------------|
-----------------|-----------------------------------|---------------------|

                                                                1 1/2
-18--18-17-15~----15-|-17h18p17p15-17~----17~---17~---17~|------20br-------|
---------------------|-----------------------------------|---x-------------|
---------------------|-----------------------------------|-x---------------|
---------------------|-----------------------------------|-----------------|
---------------------|-----------------------------------|-----------------|
---------------------|-----------------------------------|-----------------|

1/2        1/2                                       1/2
17b~------17br-|--------------------------------|---------------------------
---------------|-20-19-20s14-15-----------------|---------------------------
---------------|----------------15--14-15-14----|-12s14b~--14s------14-15---
---------------|-----------------------------17-|-------------17-17---------
---------------|--------------------------------|---------------------------
---------------|--------------------------------|---------------------------

                     1/2
---------15-|p14-17--17br--17p15--------15---------------------------------|
15s14-15----|---------------------18-16----18-16-15-18-16p15p13-16p15-13s11|
------------|--------------------------------------------------------------|
------------|--------------------------------------------------------------|
------------|--------------------------------------------------------------|
------------|--------------------------------------------------------------|


-----------------------------------------------------------|----------------
-15-13-11s10-13-11p10----11p10-----------------------------|-----------x-20-
----------------------12-------12-11-12~-----------14-15-17|-15bf~---x------
------------------------------------------------17---------|----------------
------------------------------------------13s17------------|----------------
-----------------------------------------------------------|----------------


-------------------------------|----------------------------|---------------
18p17--20p18-------------------|----------------------------|---------------
---------------17bfr---s15-----|-17~--15h17p15s14-----------|---------------
----------------------------17-|-------------------17-15-13s|12h13p12h13----
-------------------------------|----------------------------|---------------
-------------------------------|----------------------------|---------------

                         volume swells
------------|----------|--------------|---------|------------------|--------
------------|----------|--------------|---------|------------------|--------
------------|----------|--------------|-12~-----|-14h15p14p12h14~--|--------
12h13p12h13-|-x-12~----|-12~--13--15--|---------|------------------|--------
------------|----------|--------------|---------|------------------|--------
------------|----------|--------------|---------|------------------|--------

       1/2
--------------------|
--------------------|
15s17--17b--15-15s14|
--------------------|
--------------------|
--------------------|


---------------------|-------------------------------------|
---------------------|-------------------------------------|
---12-10-------------|-------------------------------------|
12-------13-12-10----|12-10-10~------------10-10~----------|
------------------13-|-----------13p12p10----------13p12p10|
---------------------|-------------------------------------|


------------------------8-10--8-----------|-----------|
--------------7-8-10s11---------11-10-8-11|13s15-15~--|
-------7-8-10-----------------------------|-----------|
7-8-10------------------------------------|-----------|
------------------------------------------|-----------|
------------------------------------------|-----------|

scoop w/bar

17--13~------13----10|------------10-14-13-11s10----11-10-------10-----|
--------15-----------|-11~-----11----------------13-------13-11----13--|
---------------------|------12-----------------------------------------|
---------------------|-------------------------------------------------|
---------------------|-------------------------------------------------|
---------------------|-------------------------------------------------|


-----------------------|
11-10----------10------|
------12-10-------12s14|
------------13---------| fade out
-----------------------|
-----------------------|





Comments


Popular Yngwie Malmsteen tabs & chords
Air Tabs
Cantabile Tabs
Far Beyond The Sun 1 Tabs
Fugue Live Tabs
Making Love Tabs
Overture 1383 Tabs
Queen Is In Love Tabs
Riot In The Dungeons Tabs
Sarabande Tabs
Soldier Without Faith Tabs


Song lyrics



↑ Back to top | Tablatures and chords are parodies/interpretations of the original songs. You may use it for private study, scholarship, research or language learning purposes only
© 2014 AZChords.com Contact us | Privacy policy | DMCA | Add/correct tabs | Request tabs | Top 50 tabs