>
 >
Child In Time

Child In Time Guitar Tabs

Yngwie Malmsteen - Child In Time chords, tabs, tablatures, lyrics

Guitar lessons | Add/correct | Request | Top 50 tabs Artists:  A B C D E F G H I J K L M N O P Q R S T U V W X Y Z 0-9

Child In Time Guitar Tabs – Yngwie Malmsteen

CD, Sheet music, Poster

Do you like Child In Time? Share with your friends now
Tabs
Yngwie Malmsteen

D#||------|------|------|------|------|------|------|------|------|------|
A#||------|------|------|------|------|------|------|------|------|------|
F#||------|------|------|------|------|------|------|------|------|------|
C#||------|------|------|------|------|------|------|------|------|------|
G#||------|------|------|------|------|------|------|------|------|------|
D#||------|------|------|------|------|------|------|------|------|------|
                                                                                
--20-19-17----19-17-------17----------------------------------17----------------
-----------20-------20-18----20-18-17-20-18-17----18-17----------20-18-17-20-18-
-----------------------------------------------19-------19-17-------------------


                                                                                
--12-10-8-----------------------------------------------------------------------
----------10-9-7--------10-9-7---------------7-------------5-4------------------
-----------------10-9-7--------10-9-7-7-9-10---10-9-10-9-7-----5---5------------


                                                                                
-------------------12-17-12-----------------------------------------------------
----------------13----------13-----------------------------------12-13-15-13-12-
-------------14----------------14--------------------------12-14----------------
----------14----------------------14--------------12-14-15----------------------
---12~-15----------------------------15-12~-14-15-------------------------------


                                                                                
--12-12-------15-17-15-13-------------------------------------------------------
--------13-15-------------17-15-13----13-12----12------------------------12-13-1
-----------------------------------16-------14----12-14~-----------12-14--------
----------------------------------------------------------12-14-15--------------


                                                                                
--13-12-10---------13-12-10-----------------------------------------------------
-----------12-10-9----------12-10-9---------12-10-9----------------------------9
------------------------------------12-10-9---------12-10-9----9-------9-10-12--
------------------------------------------------------------12---10-12----------


                                                                     
-------------------------------17-14~------|--19~----19~--------19~-|
----------------12r---13-12----------------|------------------------|
--12-10-9~-9/21-------------14-------------|------------------------|
-------------------------------------------|------------------------|
-------------------------------------------|------------------------|
-------------------------------------------|------------------------|


                                               
----------17-19-20-19h20h19-17-19-17h19h17----|
-------------------------------------------20-|
----------------------------------------------|
----------------------------------------------|
----------------------------------------------|
----------------------------------------------|


                                                             
-----------------------------19----15----17---12----15---12-|
--17-20-17h20h17--------------------------------------------|
-----------------19-17~---16----12----14----9----12----9----|
------------------------------------------------------------|
------------------------------------------------------------|
------------------------------------------------------------|


                                                        
----------------------------------------------------10-|
-------------------------------------------10-12-13----|
--7h9h7-5----7~--------------------9-10-12-------------|
---------------------------9-10-12---------------------|
---------------------10-12-----------------------------|
-------------------------------------------------------|


                                                                                
--12-13-12-10----------------------------------------------------12-15-12-------
--------------13-12----13-12-10-------------------------------13-------------12-
--------------------------------12-10-9--------------------14-------------14----
----------------------------------------12-10-9---------14----------------------
--------------------12--------------------------12~--15-------------------------


                                                         
--12-10-8-----------------------------------------12-13-|
----------12-10-8-9-12-10-9-10~----------12-13-15-------|
--------------------------------------14----------------|
-----------------------------------14-------------------|
--------------------------------------------------------|
--------------------------------------------------------|


                                                             
--15~--15/---19--15-----------------------15-17-15-13-------|
--------------------17b-17-18-17-15----15-------------17-15-|
------------------------------------17----------------------|
------------------------------------------------------------|
------------------------------------------------------------|
------------------------------------------------------------|


                                                                                
--------------12----------13-12-10----------------------------------------------
--13-12-13-15----15-13-12----------13-12-10---------13-12-10--------------------
--------------------------------------------12-10-9----------12-10-9---------10-


                                                                   
------------7--9--10-10-10-10-12-12-12-12-12-12-12-12-14-14-14-14-|
--10~-------------------------------------------------------------|


                                                                            
---------------------13-15-17-17-15-------17-13-12----------12-13-15-13-12-|
------------13-15-17----------------17-17----------15-13-15----------------|
--12~----------------------------------------------------------------------|


                                                                                
-----------------12-13-12----------------------12-13-12-------------------------
--15-13-12-13-15----------15-13-12----12-13-15----------15-13-12-13-12----13-12-
-----------------------------------14----------------------------------14-------


                                                              
-------------------------------------------------------------|
-------------------------------------------------------------|
--------------------------------------------9-----------9-10-|
--3-5-3-2----------------------------7-9-10---10-7-9-10------|
----------5-3-2-------2-3-5-3-5~-----------------------------|
----------------5-3-5----------------------------------------|


                                                                               
--------------------------------------13-15-17~-----17--19--20-17-19-20-19-17-|
-------------10-12-13~-------13-15-17-----------17----------------------------|
-----9-10-12-----------14-16--------------------------------------------------|
--12--------------------------------------------------------------------------|


                                                                         
--20-17-19-20-19-17-20-17-19-20-19-17-20-17-19-20-19-17-20-17-19-20-----|


                                                              
------------------|------------------------------------------|
------------------|------15b-15b-15b-15b-15b-15b-15b-15b-15b-|
------------------|------------------------------------------|
------------------|------------------------------------------|
------------------|------------------------------------------|
------------------|------------------------------------------|


                                                   
--------------------------------------------------|
--15b-15b-15b-15b-15b-15b-15b-15b-15b-15b-15b-15b-|
--------------------------------------------------|
--------------------------------------------------|
--------------------------------------------------|
--------------------------------------------------|


                                                   
--------------------------------------------------|
--15b-15b-15b-15b-15b-15b-15b-15b-15b-15b-15b-15b-|
--------------------------------------------------|
--------------------------------------------------|
--------------------------------------------------|
--------------------------------------------------|


                                                   
--------------------------------------------------|
--15b-15b-15b-15b-15b-15b-15b-15b-15b-15b-15b-15b-|
--------------------------------------------------|
--------------------------------------------------|
--------------------------------------------------|
--------------------------------------------------|


                                                   
--------------------------------------------------|
--15b-15b-15b-15b-15b-15b-15b-15--15--15--15--15--|
--------------------------------------------------|
--------------------------------------------------|
--------------------------------------------------|
--------------------------------------------------|


                                                           
----------------------------------------------------------|
--15--13------15--16--15--13--15--13--15--16--15--13--15--|
----------14----------------------------------------------|
----------------------------------------------------------|
----------------------------------------------------------|
----------------------------------------------------------|


                                                              
------------------------------------------|------------------|
--13--15--16--15--13--15--13--15----------|------------------|
----------------------------------14~-----|------------------|
------------------------------------------|------------------|
------------------------------------------|------------------|
------------------------------------------|------------------|


                                                   
--------------------------------------------------|
--16-17-16-15-13----16-17-16-15-13----16-17-16-15-|
-----------------14----------------14-------------|
--------------------------------------------------|
--------------------------------------------------|
--------------------------------------------------|


                                                               
--------------------------------------------------------------|
--13----16-17-16-15-13----16-17-16-18-17-16-17-16-15-17-15-13-|
-----14----------------14-------------------------------------|
--------------------------------------------------------------|
--------------------------------------------------------------|
--------------------------------------------------------------|


                                                   
--12------------------------------12--17h-12------|
------15--13--15--13--12------13--------------13--|
--------------------------14----------------------|
--------------------------------------------------|
--------------------------------------------------|
--------------------------------------------------|


                                                          
-----13----12-13h12--------------------------------------|
--------15----------15-13-12----------------12-10-9-10-9-|
--14-------------------------14-9-10-9-12-9--------------|
---------------------------------------------------------|
---------------------------------------------------------|
---------------------------------------------------------|


                                                                        
------------------------------------|----------------------------------|
--------6-5-6-5-8---5---------------|----------------------------5-6-8-|
--5-7-5-----------7---7-5-4-7-5-4---|--5-4-----4-----------4-5-7-------|
----------------------------------7-|------7-5---7-5-3-5-7-------------|
------------------------------------|----------------------------------|
------------------------------------|----------------------------------|


                                                                         
-----7-8-10h8----8-7-----------------17h15h|--13----------21b-----------|
--10----------10-----14-15-17h15h14--------|-----17h15h13---------------|
-------------------------------------------|----------------------------|
-------------------------------------------|----------------------------|
-------------------------------------------|----------------------------|
-------------------------------------------|----------------------------|


                                                   
--20-19-17----19-17-------17-15-------15-13-------|
-----------20-------20/18-------18/17-------17/15-|
--------------------------------------------------|
--------------------------------------------------|
--------------------------------------------------|
--------------------------------------------------|


                                               
--13-12-------12-10-------10-8-------8-7------|
--------15/13-------13/12------12/10-----10/8-|
----------------------------------------------|
----------------------------------------------|
----------------------------------------------|
----------------------------------------------|


                                                                      
--7-5-----5-----------------------|----------------------------------|
------8-6---8-6-5-8-6-5---6-5-----|--5-------------------------------|
------------------------7-----7-5-|----7-5-4-7-5-4---5-4-----4-------|
----------------------------------|----------------7-----7-5---7-5-3-|
----------------------------------|----------------------------------|
----------------------------------|----------------------------------|


                                                                      
----------------------------------|----------------------------------|
----------------------------------|----------------------------------|
----------------------------------|----------------------------------|
--7-5-3---5-3-----3---------------|----------------------------3-7-5-|
--------7-----7-5---7-5-3-7-5-3---|--5-3-----3-----------3-5-7-------|
--------------------------------7-|------7-5---7-5-3-5-7-------------|


                                                    
--------------------------------|------------------|
--------------------------------|------------------|
---------------------4--5--7~---|------------------|
--3-----------3-5-7-------------|------------------|
----7-5-3-5-7-------------------|------------------|
--------------------------------|------------------|


                                                         
-----------------------------------|--------------------|
-----------------------------------|--------------------|
--5--5--5--5--5--5--5----5----5----|--5~-------5~-------|
-----------------------------------|--------------------|
-----------------------------------|--------------------|
-----------------------------------|--------------------|


                                                                         
--------5-------5--5-----------5--|-----5--8-------5--------8--5-----7--|
-----5-----8b---------8-----5-----|--8b---------5-----8--5--------8-----|
--7b---------------------7b-------|-------------------------------------|
----------------------------------|-------------------------------------|
----------------------------------|-------------------------------------|
----------------------------------|-------------------------------------|


                                                                          
--5-7-5---5-7-5---5--5--8--7--8--7--|--8-7-5---5----------5-----5--------|
--------8-------8-------------------|--------8----8--5------8-5----8--5--|
------------------------------------|-------------------7b---------------|
------------------------------------|------------------------------------|
------------------------------------|------------------------------------|
------------------------------------|------------------------------------|


                                                    
-------5-----------------------|-------------------|
----------8--5-----5~----------|-------------------|
--7b------------8-----7h-8h-7--|--5~---------------|
-------------------------------|-------------------|
-------------------------------|-------------------|
-------------------------------|-------------------|


                                             
-----------------------------------------13-|
--------------------------------13-15-17----|
--5/17/5/17/5/17/5/17-----14-16-------------|
--------------------------------------------|
--------------------------------------------|
--------------------------------------------|


                                                   
--15-17-15-13-------------------------------------|
--------------17-15-13----------------------------|
-----------------------16-14-12-------------------|
--------------------------------15-14-12----------|
-----------------------------------------15-14-12-|
--------------------------------------------------|


                                                       
---------------------------------12-17~---12-13-12----|
------------------------------13-------------------15-|
---------------------------14-------------------------|
--15-14-12--------------14----------------------------|
-----------15-14-12--15-------------------------------|
------------------------------------------------------|


                                                 
--12--------------------------------------------|
--------15--13--12------12----------------------|
--------------------14-----14-12----------------|
---------------------------------15-14-12-------|
------------------------------------------15-14-|
------------------------------------------------|


                                             
--------------------------------------------|
--------------------------------------------|
--9-10-9----9-------------------------------|
---------12---12-10-12-10-9----9-10-12-9-10-|
----------------------------12--------------|
--------------------------------------------|


                                                                   
----------------------10-----------|------------------------------|
-------------10-12-13----13b-------|--13--------13b---13b---13b---|
-----9-10-12-----------------------|------------------------------|
--12-------------------------------|------------------------------|
-----------------------------------|------------------------------|
-----------------------------------|------------------------------|


                                                          
--------------------------------------|------------------|
--13b---13b---13b---13b---13b---13b---|------------------|
--------------------------------------|------------------|
--------------------------------------|------------------|
--------------------------------------|------------------|
--------------------------------------|------------------|


                                                                        
----------------------|------------------------|-----------------------|
------12~-------------|------12h-10~-----------|----12h10-8~-----------|
----------------------|------------------------|-----------------------|
----------------------|------------------------|-----------------------|
----------------------|------------------------|-----------------------|
----------------------|------------------------|-----------------------|


                                               
----------------------|-----------------------|
----10h8-7~-----------|----7h8h7-5~-----------|
----------------------|-----------------------|
----------------------|-----------------------|
----------------------|-----------------------|
----------------------|-----------------------|


                                                                         
---------------------------------|--------------------------------------|
------5--6--5--4-5-4-5-6-5-4-5-4-|--5-6-5-4-5-4-5-6-5-4-5-4-5-6-5-4-5-4-|
---------------------------------|--------------------------------------|
---------------------------------|--------------------------------------|
---------------------------------|--------------------------------------|
---------------------------------|--------------------------------------|


                                                                 
------------------------------------|---------------------------|
--5-----------------5-6-5-7-5---5---|-------5----------5--------|
-----8--7--5--7--8------------7---7-|--5-------7--5--7---5--7h5-|
------------------------------------|---------------------------|
------------------------------------|---------------------------|
------------------------------------|---------------------------|


                                                                          
---------------------------------|---------------------------------------|
----5--------5-------6--7--6-----|-----7--8--7--------8--9--8---------9--|
-------6-5-6---6--7-----------7--|--8-----------8--9-----------9--10-----|
---------------------------------|---------------------------------------|
---------------------------------|---------------------------------------|
---------------------------------|---------------------------------------|


                                                  
-------------------------------------------------|
--10--9----------10--11--10----------11--12--14--|
---------10--11--------------11--12--------------|
-------------------------------------------------|
-------------------------------------------------|
-------------------------------------------------|


                                                                              
--------------15-17-15-13-----17-15-13-15-13----|------17~-----------17~-----|
----------12--------------15-----------------17-|--15------------------------|
--12--13----------------------------------------|----------------------------|
------------------------------------------------|----------------------------|
------------------------------------------------|----------------------------|
------------------------------------------------|----------------------------|


                                                                   
------------------|----------17~-------|--15r-------12--15~-------|
------------------|--------------------|--------------------------|
------------------|--------------------|--------------------------|
------------------|--------------------|--------------------------|
------------------|--------------------|--------------------------|
------------------|--------------------|--------------------------|


                                           
------19-17-15-------------15-17-15-------|
---------------18-15-17-18----------18-17-|
------------------------------------------|
------------------------------------------|
------------------------------------------|
------------------------------------------|


                                                   
-----------13-15-13----------------12-13-12-------|
--13-15-17----------17-15-12-13-15----------15-13-|
--------------------------------------------------|
--------------------------------------------------|
--------------------------------------------------|
--------------------------------------------------|


                                                                  
-----------10-12-10----10----------------12~--|------------------|
--10-12-13----------13----13-12-13-12-10------|------------------|
----------------------------------------------|------------------|
----------------------------------------------|------------------|
----------------------------------------------|------------------|
----------------------------------------------|------------------|


                                                                           
-----------13-------------13-17-15-13-12-13-12-13-12----13-12-------------|
--13-15-17----17-13-15-17----------------------------15-------15-13-12----|


                                                                           
--13-12-------------13-12----12----------------------------------13-12----|
--------15-13-12----------15----15-13-15-13-12-13-12----12-13-15-------15-|
-----------------14----------------------------------14-------------------|


                                                   
--------------13----12----------------------------|
-----12-13-15----15----15-13-15-13-12----12-13-15-|
--14----------------------------------14----------|
--------------------------------------------------|
--------------------------------------------------|
--------------------------------------------------|


                                                 
--12-13-12----12-----------------------------12-|
-----------15----15-13--15-13-12----12-13-15----|
---------------------------------14-------------|
------------------------------------------------|
------------------------------------------------|
------------------------------------------------|


                                                      
--------------12-13----------12-13-15----------13-15-|
-----12-13-15-------12-13-15----------13-15-17-------|
--14-------------------------------------------------|
-----------------------------------------------------|
-----------------------------------------------------|
-----------------------------------------------------|


                                           
--17--15-13-12----13-12-12-13-12----------|
---------------15----------------15-15~---|
------------------------------------------|
------------------------------------------|
------------------------------------------|
------------------------------------------|


                                                                       
----------12-------------13-15-17-15-13----------|--20~---------------|
------15-----15-13-15-17----------------17-15-13-|--------------------|
-------------------------------------------------|--------------------|
-------------------------------------------------|--------------------|
-------------------------------------------------|--------------------|
-------------------------------------------------|--------------------|


                                                                             
------21r---------21~---|------21~-------------|------21~-----21~-------21~-|
------------------------|----------------------|----------------------------|
------------------------|----------------------|----------------------------|
------------------------|----------------------|----------------------------|
------------------------|----------------------|----------------------------|
------------------------|----------------------|----------------------------|


                                                                           
------------------|----------17--20--19~---|------17------17--------------|
------------------|------------------------|----------20------20~---------|
------------------|------------------------|------------------------------|
------------------|------------------------|------------------------------|
------------------|------------------------|------------------------------|
------------------|------------------------|------------------------------|


                                                                              
----------------------12--|--11h12--11h12----------12--11r---11----------12--|
------------------13------|--------------------13--------------------13------|
--------------14----------|----------------14--------------------14----------|
--------------------------|--------------------------------------------------|
--------------------------|--------------------------------------------------|
--------------------------|--------------------------------------------------|


                                               
--11r---11----------12--11r---11----------12--|
----------------13--------------------13------|
------------14--------------------14----------|
----------------------------------------------|
----------------------------------------------|
----------------------------------------------|


                                               
--11r---11----------12--11r---11----------12--|
----------------13--------------------13------|
------------14--------------------14----------|
----------------------------------------------|
----------------------------------------------|
----------------------------------------------|


                                               
--11r---11----------12--11r---11----------12--|
----------------13--------------------13------|
------------14--------------------14----------|
----------------------------------------------|
----------------------------------------------|
----------------------------------------------|


                                               
--11r---11----------12--11r---11----------12--|
----------------13--------------------13------|
------------14--------------------14----------|
----------------------------------------------|
----------------------------------------------|
----------------------------------------------|


                                                   
--17-16-15-14-------------------------------------|
--------------18-17-16-15-------------------------|
--------------------------18-17-16-15-------------|
--------------------------------------19-18-17-16-|
--------------------------------------------------|
--------------------------------------------------|


                                                                  
--------------------------------------|----------------------17--|
--------------------------------------|--------------------------|
--------------------------------------|------14~-----------------|
--------------------------------------|--------------------------|
--20-19-18-17-------------------------|--------------------------|
--------------21-20-19-18-17/---17/---|--------------------------|


                                                                    
----------15---------12--------10-----------|----------------------|
--------------------------------------------|----------------------|
--14/-12------12/-9------9/-7------7/-5--7r-|----------5--7~-------|
--------------------------------------------|----------------------|
--------------------------------------------|----------------------|
--------------------------------------------|----------------------|


                                                         
----------------------|---------------------------------|
----------------------|--12--------x--12~-x--12~-x--12~-|
---------------5/-17--|--12--------x--12~-x--12~-x--12~-|
----------------------|---------------------------------|
------0---------------|---------------------------------|
----------------------|---------------------------------|


                                                  
------------------------|------------------------|
----------12----------5-|---------------5--------|
----------12------------|--7~--------------8--7--|
------------------0-----|------------------------|
------------------------|------------------------|
------------------------|------------------------|


                                                                            
--------------------------------------|------------------------------------|
-----------5-----------------5--------|-----------5--------------5---------|
--5--7--8-----8--7--5--7--8-----8--7--|--5--7--8-----8--6--5-7-8---8-7-5-7-|
--------------------------------------|------------------------------------|
--------------------------------------|------------------------------------|
--------------------------------------|------------------------------------|


                                                                       
----------------------------------|--------5------5-8-5--8----7-8-7-5-|
----5-----------5-----------5-8-5-|--7--8-----7-8---------------------|
--8---8-7-5-7-8---8-7-5-7-8-------|-----------------------------------|
----------------------------------|-----------------------------------|
----------------------------------|-----------------------------------|
----------------------------------|-----------------------------------|


                                                                           
--7--5-----5-----------------------|--------------------------------------|
--------8----8-7-5-7-5-------------|--5h4---6h5---5h4---6h5---5h4---6h5---|
-----------------------7-5-7----8--|------7-----7-----7-----7-----7-----8-|
-----------------------------------|--------------------------------------|
-----------------------------------|--------------------------------------|
-----------------------------------|--------------------------------------|


                                                                              
--------------------------------------|--------------------------------------|
--5h4---6h5---5h4---6h5---5h4---6h5---|--5h4---6h5---5h4---6h5---5h4---6h5---|
------7-----7-----7-----7-----7-----8-|------7-----7-----7-----7-----7-----8-|
--------------------------------------|--------------------------------------|
--------------------------------------|--------------------------------------|
--------------------------------------|--------------------------------------|


                                                                              
--------------------------------------|--------------------------------------|
--5h4---6h5---5h4---6h5---5h4---6h5---|--4h-5--------------4h-5--------------|
------7-----7-----7-----7-----7-----8-|--------7--5h-4-----------7--5h-4-----|
--------------------------------------|-----------------7-----------------7--|
--------------------------------------|--------------------------------------|
--------------------------------------|--------------------------------------|


                                                                              
--------------------------------------|--------------------------------------|
--5h-4-----6h-5-----4h-5--------------|--4h-5--------------4h-5--------------|
--------7--------7--------7--5h-4-----|--------7--5h-4-----------7--5h-4-----|
-----------------------------------7--|-----------------7-----------------7--|
--------------------------------------|--------------------------------------|
--------------------------------------|--------------------------------------|


                                                                              
--------------------------------------|--------------------------------------|
--5h-4-----6h-5-----4h-5--------------|--5--4-----6--5-----3--4--5--4--5--6--|
--------7--------7--------7--5h-4-----|--------7--------7--------------------|
-----------------------------------7--|--------------------------------------|
--------------------------------------|--------------------------------------|
--------------------------------------|--------------------------------------|


                                       
--------------------------------------|
--3--4--5--4--5--6--5--6--7--6--7--8--|
--------------------------------------|
--------------------------------------|
--------------------------------------|
--------------------------------------|


                                          
-----------------------------------------|
--7--8--7--8--9--10--8--9--10--8--9--10--|
-----------------------------------------|
-----------------------------------------|
-----------------------------------------|
-----------------------------------------|


                                                                       
-------------------------------------------------|--------------------|
--9--10--11--10--11--12--10--11--12--10--11--12--|--15~---------------|
-------------------------------------------------|--------------------|
-------------------------------------------------|--------------------|
-------------------------------------------------|--------------------|
-------------------------------------------------|--------------------|


                                                           
--------------------|----------10----------13-12-10-------|
----------13~-------|-------------13-12-10----------13-12-|
--------------------|-------------------------------------|
--------------------|-------------------------------------|
--------------------|-------------------------------------|
--------------------|-------------------------------------|


                                      
-------------------------------------|
--10----13-12-10---------------------|
-----------------12-10-9----9~-------|
-------------------------12----------|
-------------------------------------|
-------------------------------------|


                                                   
----------12----------12----------12--------------|
------13----------13----------13------15--13--12--|
--14----------14----------14----------------------|
--------------------------------------------------|
--------------------------------------------------|
--------------------------------------------------|


                                             
----------12----------12--------------------|
------13----------13------15--13--12--------|
--14----------14----------------------14----|
--------------------------------------------|
--------------------------------------------|
--------------------------------------------|


                                                   
----------12----------12----------12--------------|
------13----------13----------13------15--13--12--|
--14----------14----------14----------------------|
--------------------------------------------------|
--------------------------------------------------|
--------------------------------------------------|


                                             
----------12----------12--------------------|
------13----------13------15--13--12--------|
--14----------14----------------------14----|
--------------------------------------------|
--------------------------------------------|
--------------------------------------------|


                                                   
----------16----------16----------16--------------|
------17----------17----------17------19--17--16--|
--18----------18----------18----------------------|
--------------------------------------------------|
--------------------------------------------------|
--------------------------------------------------|


                                             
----------16----------16--------------------|
------17----------17------19--17--16--------|
--18----------18----------------------18----|
--------------------------------------------|
--------------------------------------------|
--------------------------------------------|


                                                   
----------16----------16----------16--------------|
------17----------17----------17------19--17--16--|
--18----------18----------18----------------------|
--------------------------------------------------|
--------------------------------------------------|
--------------------------------------------------|


                                             
----------16----------16--------------------|
------17----------17------19--17--16--------|
--18----------18----------------------18----|
--------------------------------------------|
--------------------------------------------|
--------------------------------------------|


                                                   
--------------------------------------------------|
--------14-16-17-16-14-------------14-16-14----16-|
--14-16----------------16-13-14-13----------16----|
--------------------------------------------------|
--------------------------------------------------|
--------------------------------------------------|


                                                               
--------------------------------------------------------------|
--14----------------------------------------------------------|
-----16-14-16-14-13----14-13-------13----------------13-14-16-|
--------------------16-------16-14----16-14-13-14-16----------|
--------------------------------------------------------------|
--------------------------------------------------------------|


                                                   
--------------------------------------------------|
--------------------------------------------------|
--14-13----14-13----------------------------------|
--------16-------16-14-13-14-13----------13-14-16-|
--------------------------------16-14-16----------|
--------------------------------------------------|


                                                         
--------------------14-16-17-16-14----------------------|
-----------14-16-17----------------17-16-14-------------|
--13-14-16----------------------------------16-14-13----|
--------------------------------------------------------|
--------------------------------------------------------|
--------------------------------------------------------|


                                                                        
--21~--------------------17-19-|--21-19-17-19-17----17-------21~-------|
----------------17-19-21-------|-----------------21----21-19-----------|
-------------------------------|---------------------------------------|
-------------------------------|---------------------------------------|
-------------------------------|---------------------------------------|
-------------------------------|---------------------------------------|


                                               
--------16-21-16--16--16-17-16----------------|
-----17------------------------19-17-16-------|
--18------------------------------------18-16-|
----------------------------------------------|
----------------------------------------------|
----------------------------------------------|


                                                                         
--------------------------------------------------|---------------------|
--16----------------------------------------------|---------------------|
-----18-16----------------16----------------------|---------------------|
-----------19-18-16----------19-18-19-18-16-------|---------------------|
--------------------19-18-------------------19-18-|--16/---------x------|
--------------------------------------------------|---------------------|


                                        
------------------|--------------------|
------------------|-------16r----------|
------------------|--------------------|
------------------|--------------------|
------------------|--------------------|
------------------|--------------------|


                                                               
-----------------------------------------------------14-16-17-|
-----17-------------------------------------14-16-17----------|
-----------------------------------13-14-16-------------------|
--------------13-14-13----13-14-16----------------------------|
-----------------------16-------------------------------------|
--------------------------------------------------------------|


                                                         
--17r------16h17h16-14-16-14h16h14----------------------|
-----------------------------------17-16-17-16h17h16-14-|
--------------------------------------------------------|
--------------------------------------------------------|
--------------------------------------------------------|
--------------------------------------------------------|


                                                                    
-----------------11---------|------------------------9-16-14-16-14-|
----------------------------|----------------------9---------------|
--16-13~------------8-9-8---|--------------------9-----------------|
--------------------------9-|-----------------11-------------------|
----------------------------|--9-11~-------------------------------|
----------------------------|--------------------------------------|


                                                                                
--12-12-11-9--------------------------------------------------------------------
-------------12-10-9----12-10-9-------------------------------------------------
---------------------11---------11-9-8------------------------------------------
---------------------------------------11-9------------11-9---------------------
--------------------------------------------12-11-9---------12-11-9-------------
----------------------------------------------------12--------------12-11-9-11-1


                                                                      
--11-12-11-9-12/14-11-14-11------------------------9-11----9---------|
----------------------------12-------------9-10-12------12---12----9-|
-------------------------------11-9-8-9-11----------------------11---|


                                       
-------------------------------------||
-------------------------------------||
--9-8----8---------------------------||
------11---9-8----8------11----------||
---------------11---9-11-------------||
-------------------------------------||





Comments


Popular Yngwie Malmsteen tabs & chords
Cry No More Bass Tabs
Presto Vivace Bass Tabs
Vengeance Bass Tabs
Blitzkrieg 3 Tabs
Fire Tabs
Flamenco Diablo Intro Tabs
Heaven Tonight 1 Tabs
Hiroshima Mon Amour Tabs
Judas Tabs
My Resurrection 1 Tabs


Song lyrics



↑ Back to top | Tablatures and chords are parodies/interpretations of the original songs. You may use it for private study, scholarship, research or language learning purposes only
© 2014 AZChords.com Contact us | Privacy policy | DMCA | Add/correct tabs | Request tabs | Top 50 tabs