>
 >
Ces't La Vie

Ces't La Vie Guitar Tabs

Yngwie Malmsteen - Ces't La Vie chords, tabs, tablatures, lyrics

Guitar lessons | Add/correct | Request | Top 50 tabs Artists:  A B C D E F G H I J K L M N O P Q R S T U V W X Y Z 0-9

Ces't La Vie Guitar Tabs – Yngwie Malmsteen

CD, Sheet music, Poster

Do you like Ces't La Vie? Share with your friends now
Tabs
Yngwie Malmsteen - C'est La Vie
Tune down 1/2 step


Sitar Intro

Intro
          1/4
|-----------------------|--------------|--------------------------------|
|-----------------------|--------------|--------------------------------|
|-----------------------|--------------|--------------------------------|
|-----------------------|--------------|--------------------------------|
|-----------------------|--------------|--------------------------------|
|---0--2--5b---2--0--2--|--------------|--0--2--5b--2--0--2-------------|



|---------------------------------|--------------------|---------x---x--|
|--17bf--x--17bf--x--17bf--rb17\--|--------------------|---------x---x--|
|---------------------------------|--------------------|----------------|
|---------------------------------|--------------------|----------------|
|---------------------------------|--------------------|----------------|
|---------------------------------|-0--2--5b--2--0--2--|----------------|



|--------------------|---------------------------------------------------
|--------------------|-------22p19----------22p19---------22p19----------
|--------------------|-21bf---------21-21bf-------21-21bf-------21bf-----
|--------------------|---------------------------------------------------
|--------------------|---------------------------------------------------
|-0--2--5b--2--0--2--|---------------------------------------------------



------------|--------------------------|--------------------------------|
--22p19-----|--------------------------|--------------------------------|
--------21--|--------------------------|----------------|
------------|--------------------------|--------------------------------|
------------|--------------------------|--------------------------------|
------------|-0--2--5b--2--0--2--x--x--|--------------------------------|



|------------------------------|---------------------------|-------------
|------------------------------|---------------------------|-------------
|------------------------------|---------------------------|-------------
|------------------------2tr4--|---------------------4~----|-------------
|------------------------------|---------------------------|-------------
|-0--2--5-5--2--0--2--2--------|--0--2--5b--2--0--2--------|-0--2--5b--2-


     
-------------------------|--------------------x----2------x--x----------|
-------------------------|--------------------x----2------x--x----------|
----------4b-(5)---x--x--|----------------------------------------------|
-------------------------|----------------------------------------------|
-------------------------|----------------------------------------------|
--0--2-------------------|-0--2--5--2--0--2-----------------------------|



|--------------------------------|-----------------------x\p.s----------|
|--------------------------------|-----------------------x\-------------|
|--------------------------------|--------------------------------------|
|-------------------x--2bf--rb2--|--------------------------------------|
|--------------------------------|--------------------------------------|
|-0--2--5--2--0--2---------------|-0--2--5--2---------------------------|


Verse

||-----------------------------|------------|---------|------------------
||-----------------------------|------------|---------|------------------
||o----------------------------|------|----|------------------
||o----------------------------|------------|---------|------------------
||-----------------------------|------------|---------|------------------
||----0--2--5b--2--0--2--x--x--|------------|---------|--0--2--5b--2--0--



-----------|--------------------------------|---------------------------|
-----------|--------------------------------|---------------------------|
-----------|--------------------------------|---------------------------|
-----------|--------------------------------|---------------------------|
-----------|----------------------x--2+-x---|---------------------------|
--2/14\9\--|-0--2--5--2--0--0--2------------|-0--2--5b--2--0--2--x-x-x--|



|-----------------------------------|-----------------------------------|
|-----------------------------------|-----------------------------------|
|-----------------------------------|-----------------------------------|
|-2-4-4-4-4-4-4-4-4-4-4-4-4-4-4-4-4-|-2-4-4-4-4-4-4-4---------2-4-2-----|
|-----------------------------------|-----------------2-3-4-5-----------|
|-----------------------------------|-----------------------------------|



Pre-Chorus

|---------------------|----------------------|--------|-------|---------|
|---------------------|----------------------|--------|-------|---------|
|---------------------|----------------------|--------|-------|---------|
|---------------------|-----------4--3-------|--------|-------|---------|
|-2--4--5--4~---2--4--|--2--4--5--------5~---|--------|-------|---------|
|---------------------|----------------------|--------|-------|---------|


                                              Chorus
|------------------|-------------------------|-------------------2---x--|
|-----------7------|-------------------------|-------------------2---x--|
|-----------8------|-------------------------|--------------------------|
|-----------7------|-------------------------|--------------------------|
|---9--------------|--11---------------------|--------------------------|
|---7-------8------|---9---9-10-9-7-9-7\5\4--|-0--2--5--2--0--2---------|
 


|----------------------------|----------------------------|--------------
|----------------------------|----------------------------|--------------
|-------------------3+w/bar--|----------------------------|--------------
|----------------------------|----------------------------|--------------
|----------------------------|----------------------------|------------9-
|-0--2--5--2--0--2-----------|-0--2--5--2--0--2--x--x--x--|-0--2--5--2/--



----------------|----------------------------|--------------------------|
----------------|----------------------------|-------------------7-5h7~-|
----------------|----------------------------|--------------------------|
----------------|----------------------4~----|----------------/6--------|
--7tr9-----7----|----------------------------|--------------------------|
--------9--7----|-0--2--5--2--0--2--2--------|-0--2--5--2--0------------|



|--------------------x--x------|---------------------------------------||
|--------------------x--x------|---------------------------------------||
|------------------------------|--------------------------------------o||
|------------------------------|-------------------4tr2---------------o||
|------------------------------|---------------------------------------||
|-0--2--5--2--0--2----------x--|-0--2--5--2--0--2----------------------||



Interlude (Acoustic Guitar)

|------------|-----------12-14--15-14-12----14-12----12-|----------------
|------------|--12-14-15-----------------15-------15----|-15-14-12----14-
|--------4---|------------------------------------------|----------14----
|------------|------------------------------------------|----------------
|------------|------------------------------------------|----------------
|------------|------------------------------------------|----------------



--12-------12-----------------------------------------------------------|
-----14-12----12-11-14-12-11----12-11-------11--------------------------|
-----------------------------14-------14-12----14-12-11--12-14-11-------|



|-------------------------------------------|-14-14-14-14-14-14----14-14-
|-------------------------------------------|-------------------15-------
|-------------9-12-9-11----9----------------|----------------------------
|-----9-11-12-----------11---11-12-9-11-8---|----------------------------
|--12-------------------------------------7-|----------------------------
|-------------------------------------------|----------------------------



-14-14-14-14-|-----------------------------------------------------------
-------------|-12-14----12-----------------------------------------------
-------------|-------14----12-14-11-12----11-----------------------------
-------------|-------------------------14----12----/12-/12-/12-9-------9-
-------------|----------------------------------14---------------12-11---
-------------|-----------------------------------------------------------



--------------------------------|--------------------|-------------------
--------------------------------|--------------------|-------------------
--------------------------------|-----------------9--|-------------------
--------------------------------|-----------8--9-----|-11-------11-12----
--12-11-9-11-12-11-9-11-9-------|-7--9--10-----------|----12-14-------14-
--------------------------12-10-|--------------------|-------------------



--------------------------------------------------------12h14h16p14p12---
-----------------------------------11h12p11----11h12h14------------------
--------------------11-------11-13----------13---------------------------
--11-12-14-11-12-14----12-14---------------------------------------------


                 1/2
------14~~----|--21b---rb21---21b---21b---|--19p17p15-----17p15---------|
--14----------|---------------------------|------------19-------19p17---|
--------------|---------------------------|-----------------------------|
--------------|---------------------------|-----------------------------|
--------------|---------------------------|-----------------------------|
--------------|---------------------------|-----------------------------|



|-3-----------3h5h7p5p3h5p3-2-3-2---------------------------------------|
|---7-5---5-7---------------------5---5---------------------------------|
|-------7---------------------------7---7----------7--------------------|
|-----------------------------------------9----------9----9~--\---------|
|-------------------------------------------13p12------12---------------|
|-----------------------------------------------------------------------|



|-----------15----15----15------15------15-------------------------------|
|---/17-19-----17----15---------------------------------19h20p19-/19\----|
|---------------------------18------16------15/16h18h19------------------|
|---------------------------------------------------------------------0--|
|------------------------------------------------------------------------|
|------------------------------------------------------------------------|



|----7-------14-15-14p12-14----------------------------------------------
|-14---14-15----------------14-15-14-12-15-14p12-15p14p12\11-14-12----12-
|------------------------------------------------------------------12----
|------------------------------------------------------------------------
|------------------------------------------------------------------------
|------------------------------------------------------------------------



-----------------------------------------|-------------------------------
--11-------------------------------------|-------------------------------
-----12p11-12-11----12-11----------------|-------------------------------
-----------------14-------14p12p11h12bf--|--rb12--11-----11/12-------16--
-----------------------------------------|-----------14--------14-17-----
-----------------------------------------|-------------------------------



--------19p14-19p14----------12-15-14-12----------------|----------------
-----15-------------12h14h15-------------15p14p12\11-11-|----------------
--16----------------------------------------------------|-14p12p11-------
--------------------------------------------------------|----------14----
--------------------------------------------------------|----------------
--------------------------------------------------------|----------------



--12p11-11---------------------------------------------------------------|
-----------12p11-9-12-11-9-11-9----9-------------------------------------|
--------------------------------12---12-11-10-9-12-10-9----10-9-------9--|
--------------------------------------------------------12------12-10----|



|------------------------------------------------------------------------
|------------------------------------------------------------------------
|------------------------------------------------------------------------
|-------------------------------------------4-5-7--7p5h7/9-4h5p4h5h7/9---
|---------------5-4---7-5-4-----------4-5-7------------------------------
|-12-10-9-12--7-----7-------7-5-3-5-7------------------------------------



----------------|-------------14/15-14-12--------------------------------
----------------|-------------------------15-14-12\11--------------------
--6h7h9-6-6-7-9/|11~--p9--9~--------------------------14-13p11-----------
----------------|----------------------------------------------14p12p11--
----------------|--------------------------------------------------------
----------------|--------------------------------------------------------



----------|----------------------------------21----21-----------21p19p17-
----------|-12bf--12bf--12bf--12--12\11--21-----19-----18~---21----------
----------|--------------------------------------------------------------
----------|--------------------------------------------------------------
--14-13\--|--------------------------------------------------------------
----------|--------------------------------------------------------------



-------|--19p17-------17-------------------------------------------------
--21---|--------21p19----21p19p18h21p19p18----19----------18-------------
-------|-----------------------------------19----16-19p18----18-19-19-16-
-------|-----------------------------------------------------------------
-------|-----------------------------------------------------------------
-------|-----------------------------------------------------------------



-------------------------------|-----------------------------------------
-------------------------------|--------------15p14p12----14p12-------12-
--18-14-16-13-14-11-14-13-11\--|-/10--/10\11-----------14-------14p13----
-------------------------------|-----------------------------------------
-------------------------------|-----------------------------------------
-------------------------------|-----------------------------------------



------------------------------------------|------------------------------
-----------15p14p12-----------------------|------------------------------
--14p13p11----------14p13p11\10h13p11p10--|-9h13-13-13p11p10-11p10p9p8---
------------------------------------------|------------------------------
------------------------------------------|------------------------------
------------------------------------------|------------------------------



------------------------------------|-----------------------------------|
------------------------------------|-----------------------------------|
-----11h13w/bar-13-13-/14bf--rb14p11|-14bf~w/bar-------14bf--rb14-------|
--11--------------------------------|-----------------------------------|
------------------------------------|-----------------------------------|
------------------------------------|-----------------------------------|



|-----------------------------|-------------------19-21------------------
|--------------------x\-------|----------------19----------19-19-22bf----
|-14-13-13h14-13~----x\p.s.---|-------------19----------19---------------
|-----------------------------|----------21------------------------------
|-----------------------------|-------21---------------------------------
|-----------------------------|-19-22------------------------------------



------------------------------------------|-9-10-9-7-9-10-10/21-21-21-21~|
--22p19-----------------------------------|------------------------------|
--------20--------------------------------|------------------------------|
-----------22p19-22p19--------------------|------------------------------|
-----------------------21p18h21p18--------|------------------------------|
-------------------------------------12/--|------------------------------|



|--------------------------------------|---------------------------------|
|--\14p13p12---------------------------|--/17bf~---------------------0---|
|------------14p13p11-13-13-11\10------|---------------------------------|
|----------------------------------x---|---------------------------------|
|--------------------------------------|---------------------------------|
|--------------------------------------|---------------------------------|


   1/2
|-16b---rb16~--16-----------|--14-17-14~--17-14-16-17-16-14-21-14-16-17-16
|------------------14-17bf--|--------------------------------------------
|---------------------------|--------------------------------------------
|---------------------------|--------------------------------------------
|---------------------------|--------------------------------------------
|---------------------------|--------------------------------------------


                                                 1/2    full    1/2
--14-17-14-16-17-|-16-14-19~---/17-----------17-21b---(21b)----rb21-----|
-----------------|------------------17-19-16----------------------------|
-----------------|------------------------------------------------------|
-----------------|------------------------------------------------------|
-----------------|------------------------------------------------------|
-----------------|------------------------------------------------------|



|-21~----12----17-16-16---14~---\-------17-21p19p17-|-19p17-------17\16--
|-----------14---------------------/21--------------|-------21p19--------
|---------------------------------------------------|--------------------
|---------------------------------------------------|--------------------
|---------------------------------------------------|--------------------
|---------------------------------------------------|--------------------



-17p16h17-16~--21p17----20p17----20-23p20---------------------10--------|
---------------------19-------19----------24p19-19\--17\--12------------|


                                    1/2
|-14p10-----12-12p9----10p7---9------9b--rb9-----------------------------|
|-------10----------10------9---10p7----------10\6-/10p9p7\6h7-9p7p6-----|
|------------------------------------------------------------------------|
|--------------------------------------------------------------------0---|
|------------------------------------------------------------------------|
|------------------------------------------------------------------------|



|--------------------------------------------|--------------------------|
|----------5bf--rb5------------------17bf----|--------------------------|
|--------------------------------------------|---chorus out-------------|
|--------------------------------------------|--------------------------|
|-0--0--0-------------2----------------------|--------------------------|
|---------------------0dive-w/bar------------|--------------------------|



|-16p14-16p14--------14--------------14----------------------------------
|-------------17p14------17-14----------17-14----------------------------
|------------------------------16bf-----------16b(17)--16bfp14----16p14--
|--------------------------------------------------------------16--------
|------------------------------------------------------------------------
|------------------------------------------------------------------------



--------------------|-------------------------------14-------------------
--------14----------|----------------------------14-----14h15h17p15p14---
--16bf-----14-------|-------------------------14-------------------------
--------------16~---|-16h19-16~------------16----------------------------
--------------------|-------------------16-------------------------------
--------------------|------------14--17----------------------------------


                                     1 1/2
------------------------|----------------------------------------------||
--------14h15p14p12-----|--15bf~~~----19b-------rb19f------------------||
--16-13-------------13--|----------------------------------------------||
------------------------|----------------------------------------------||
------------------------|----------------------------------------------||
------------------------|----------------------------------------------||



h = hammeron                    Judy Letostak                         
t = tap (right hand)            The Music Shop BBS (619)423-4970 24hrs
~ = vibrato                     * = picked harmonic
bf = bend full                  tr = trill
rb = release bend               p.s. = pick scrape
dive = dive with bar            b = bend / step written over note
= repeat bar                  + = natural harmonic
The Music Shop BBS (619)423-4970  24hrs
Tons of music files, tab, lyrics, pictures, sound files....LORD, BRE
Falcon's Eye (interplanetary).  Internet Email and USENET. Unsigned/
Indie band support, free of cost ask for more details.





Comments


Popular Yngwie Malmsteen tabs & chords
Crying Bass Tabs
Allegro Tabs
Amadeus Quattro Valvole Tabs
Blitzkrieg Tabs
Cross The Line Intro Tabs
Gimme Gimme Gimme Intro Tabs
Overture 1383 Tabs
Overture 1622 Tabs
Sarabande Tabs
Tocatta Fugue Tabs


Song lyrics



↑ Back to top | Tablatures and chords are parodies/interpretations of the original songs. You may use it for private study, scholarship, research or language learning purposes only
© 2014 AZChords.com Contact us | Privacy policy | DMCA | Add/correct tabs | Request tabs | Top 50 tabs