» » »

Yngwie Malmsteen, Caprice 1 Tabs (ver.1)

Artists:  A B C D E F G H I J K L M N O P Q R S T U V W X Y Z # 

Caprice 1 Tabs (ver.1)

Yngwie Malmsteen Tabs
 Rating:
4/5 (4 votes)
Caprice 1 lessons Tabs too difficult? Try these video lessons and learn fast
1
                "(0)
e|---------3-5-6-5-3-----------------------------------------------|
B|-------3------------6-4-3----------------------------------------|
G|------3-------------------5-3------------------------------------|
D|----5-------------------------7-5-4-5----------------------------|
A|---5----------------------------------------3-5h6p5p4-5-3--------|
E|-3---------------------------------=--3-5-6---------------6-5----|


e|---------3-5-6-5-3-----------------------------------------------|
B|-------3------------6-4-3----------------------------------------|
G|------3-------------------5-3------------------------------------|
D|----5-------------------------7-5-4-5----------------------------|
A|---5----------------------------------------3-5h6p5p4-5-3--------|
E|-3---------------------------------=--3-5-6---------------6-5----|

e|-----------------------------------------------------------|
B|--------------------------------------6h8p6p5-6-4----------|
G|----------------------5h7p5p4----------------------7-5-----|
D|---5h7p5p4-5-3-----------------7-5--3----------------------|
A|----------------6-5--3-------------------------------------|
E|-3--------------------------------=------------------------|


e|------6h8p6p5-6--------------------------------------------------|
B|----------------10-9-8-------------------------------------------|
G|--3-----------------------11---10---9---8---7---6----------------|
D|-----------------------------------------------------------------|
A|----------------------------9-----8---7---6---5---4--------------|
E|-----------------------------------------------------------------|

e|-------------------------------------------------------------------|
B|-------------------------------------------------------------------|
G|----------------7--------------------------------------------------|
D|------------4-7----------------------------------------------------|
A|--5h6p5p4-5--------5-6-5-3-----------------------------------------|
E|----------------------------6-5------------------------------------|


e|---------3-5-6-5-3-----------------------------------------------|
B|-------3------------6-4-3----------------------------------------|
G|------3-------------------5-3------------------------------------|
D|----5-------------------------7-5-4-5----------------------------|
A|---5----------------------------------------3-5h6p5p4-5-3--------|
E|-3---------------------------------=--3-5-6---------------6-5----|


e|---------3-5-6-5-3-----------------------------------------------|
B|-------3------------6-4-3----------------------------------------|
G|------3-------------------5-3------------------------------------|
D|----5-------------------------7-5-4-5----------------------------|
A|---5----------------------------------------3-5h6p5p4-5-3--------|
E|-3---------------------------------=--3-5-6---------------6-5----|

e|-----------------------------------------------------------|
B|--------------------------------------6h8p6p5-6-4----------|
G|----------------------5h7p5p4----------------------7-5-----|
D|---5h7p5p4-5-3-----------------7-5--3----------------------|
A|----------------6-5--3-------------------------------------|
E|-3--------------------------------=------------------------|


e|------6h8p6p5-6--------------------------------------------------|
B|----------------10-9-8-------------------------------------------|
G|--3-----------------------11---10---9---8---7---6----------------|
D|-----------------------------------------------------------------|
A|----------------------------9-----8---7---6---5---4--------------|
E|-----------------------------------------------------------------|


e|------------------11---------------------------------------------|
B|----------------------13-10--------------------13-10-------------|
G|-5----4--3--2----------------------------------------------------|
D|-----------------------------------------------------------------|
A|--3----2---1--0--------------------------------------------------|
E|-----------------------------11p10h11p10h11-11----------11-------|


e|------------------11---------------------------------------------|
B|----------------------13-10--------------------13-10-------------|
G|-5----4--3--2----------------------------------------------------|
D|-----------------------------------------------------------------|
A|--3----2---1--0--------------------------------------------------|
E|-----------------------------11p10h11p10h11-11----------11-------|

e|-----------------------------------------------------------------|
B|------------------13--12-----------------------------------------|
G|---------------------------------------------------15-14---------|
D|-----------------------------------------------------------------|
A|-----------------------------------------------------------------|
E|--10h11p10h11-13---------11--12h13p12h13p12h13-15---------13-----|

e|-----------------------------------------------------------------|
B|-----------------------------------------------------------------|
G|-----------------17-15-----------------------20-19---------------|
D|-----------------------------------------------------------------|
A|-----------------------------------------------------------------|
E|-14h15p14h15-17---------15-17h18p17h18--20-------------18--------|

e|----------------------18---21---------13--------------------8-------|
B|-------14---17---20--------------------------------------------10-9-|
G|--15----------------------------------------------------------------|
D|--------------------14---17-----------------------------------------|
A|-----10---13---16------------8h10p8h10------------------------------|
E|12---------------------------------------10-11-8--6h8p6\5/6---------|


e|------------------------------5----------------------------------------|
B|-8h10p8p7-8----------------------8-7---6h8p6p5-6-----------------------|
G|-------------8-7-6-5-7-5-4-5---------------------7-6-5-3-5-3-2-3-2-1---|
D|---------------------------------------------------------------------4-|
A|-----------------------------------------------------------------------|
E|-----------------------------------------------------------------------|


e|----6-3-0------------------------------2p1--------------14/13-------|
B|---------2------6---5-----------------------------------------------|
G|-0----------3-------------------------------------------------=-----|
D|--------------3---2------5------------------------------------------|
A|-----------------------------1h3p1p0-1------0-1h3p1p0-1-------------|
E|----------------------3---------------------------------------------|


e|-------------2p1-------------------------------------------------|
B|-----------------------------------------------------------------|
G|-----------------------------------------------------------------|
D|------------------------------4/3--------------------------------|
A|-0-1h3p1p0-1------0-1h3p1p0-1------0-1h3p1p0-1-------------------|
E|-----------------------------------------------------------------|
AND THATS IT
"            
Submit corrections

comments powered by Disqus
↑ Back to top | Yngwie Malmsteen Tabs for Caprice 1. Lyrics for acoustic guitar and electric guitar. 1 Tablatures and chords are parodies/interpretations of the original songs. You may use it for private study, scholarship, research or language learning purposes only