>
 >
Blue

Blue Guitar Tabs

Yngwie Malmsteen - Blue chords, tabs, tablatures, lyrics

Guitar lessons | Add/correct | Request | Top 50 tabs Artists:  A B C D E F G H I J K L M N O P Q R S T U V W X Y Z 0-9

Blue Guitar Tabs – Yngwie Malmsteen

CD, Sheet music, Poster

Do you like Blue? Share with your friends now
Bass TabsTabs
                                    Blue                                       


                                                                Yngwie Malmsteen
Lead Guitar



      H.            
D#||---------------|
A#||---------------|
F#||---------------|
C#||---------------|
G#||---------------|
D#||---------------|


  T  T  T  T  T  T  T  T  T  T  T  T  T  T  T  T  T  T  T  T  T  T  T  T   
--------------------------------------------------------------------------|
--------------------------------------------------------------------------|
--------------------------------------------------------------------------|
--0h-2p-0h-2p-0h-2p-0h-2p-0h-2p-0h-2p-0h-2p-0h-2p-0h-2p-0h-2p-0h-2p-0h-2h-|
--------------------------------------------------------------------------|
--------------------------------------------------------------------------|


  T  T  T  T  T  T  T  T  T  T  T  T E  E  E     Q.      E  E  E   
----------------------------------------------|-------------------|
----------------------------------------------|-------------------|
----------------------------------------0--2--|--4~------L--2--0--|
--0h-2p-0h-2p-0h-2p-0h-2p-0h-2p-0h-2-2--------|-------------------|
----------------------------------------------|-------------------|
----------------------------------------------|-------------------|


              sld           sld       sld        
  S S  Q      E  E  E       Q.        E  E   E   
-----------------------|------------------------|
-----------------------|------------------------|
--2--------------7--9--|--7g9~------7g9--7------|
----2~-L----7g9--------|--------------------10--|
-----------------------|------------------------|
-----------------------|------------------------|


  Q     S S   S  S   S  S S   S   
---------------------------------|
---------------------------------|
---------------------------------|
--9~----L-9h-10p-9h-10p-9-9h-10h-|
---------------------------------|
---------------------------------|


         |---3--|  |--3--|              |--3-|  
  Q      S   S  S  S  S  S  T  T  T  T  S S  S  
-----------------------------------------------|
------------------------------12-15----12-L-12-|
---------------12----12-14-15-------15---------|
--9~----12h-14----14---------------------------|
-----------------------------------------------|
-----------------------------------------------|


                                |-3-|  |-3-|      
   T  T  T  T  T  T  S   S  S   E   S  E   S  E   
------------------------12-----12----------------|
---------------------------15b-----15------------|
--15-14-12----14-12-14b---------------14--12~-L--|
-----------14------------------------------------|
-------------------------------------------------|
-------------------------------------------------|


   T  T  T  T  T  T  T  T  T  T  T  T  Q.       
-----------------12-17-12----------------------|
--------------13----------13-------------------|
-----------14----------------14----------------|
--------14----------------------14-------------|
--12-15----------------------------15-12~------|
-----------------------------------------------|


      sld                        
                        |--3--|  
      Q.      E   E     S  S  S  
--12g15b------L--14br--12-15-14-|
--------------------------------|
--------------------------------|
--------------------------------|
--------------------------------|
--------------------------------|


   T  T  T  T  T  T  T T T  T T T  T T T T T T T T E   
--12-11-----------------------------------------------|
--------13-12-10--------------------------------------|
-----------------12-11-9-8----------------------------|
---------------------------10-9-7---------------------|
----------------------------------10-9-7-6------------|
-------------------------------------------8-7-5-3-0--|


         |---3--|            |---3--|  |---3--|                             
  E  E   S   S  S  S   T  T  S  S   S  S   S  S     Q.       E      E   E   
---------------12-----12---------------------12-|--------------------------|
------------12----15b----15-12-----12-----12----|--15b------15pbr--15--13--|
-----x--14b--------------------14b----14b-------|--------------------------|
------------------------------------------------|--------------------------|
------------------------------------------------|--------------------------|
--L---------------------------------------------|--------------------------|


   T  T  T  T  T T  T  T T T  T T T T T T T T T T T T T T  
-----10----------8---------7--------5-------3-------------|
--12----13-12-10---12-10-8---10-8-7---8-7-5---7-5-4-7-5-4-|
----------------------------------------------------------|
----------------------------------------------------------|
----------------------------------------------------------|
----------------------------------------------------------|


                                          |--3--|                 |--3--|  
  Q      E    Q     S S     S   S  S  S   S  S  S E   T  T  T  T  S  S  S  
------------------------|------12--------------15-L--12-------15----------|
--5~----(5)--17~----L-0-|--15b----15-----15-12----------15-12----12-15----|
------------------------|------------14b-------------------------------12-|
------------------------|-------------------------------------------------|
------------------------|-------------------------------------------------|
------------------------|-------------------------------------------------|


         |--3--|                                               |--3--|  
  E   S  T  T  T  T   T  T  T  T   S. Q       Q     E    Q     S  S  S  
--------------12-17p-12--------------------|-------15br--L----15-12----|
-----------13-----------13-----------------|------------------------15-|
--L--14-14-----------------14-12h-14~-L----|--0------------------------|
-------------------------------------------|---------------------------|
-------------------------------------------|---------------------------|
-------------------------------------------|---------------------------|


                               |---3--|                
   S   S  S   S  S   S  S   S  S   S  S  T   T  T   T  
------12-----12-----12-----12-----12--------12-----12-|
--15b----15b----15b----15b----15b----15-15b----15b----|
------------------------------------------------------|
------------------------------------------------------|
------------------------------------------------------|
------------------------------------------------------|


           |--3--|         |-----5-----|  |-----5-----|  
   Q       S  S  S  S   S  T  T  T  T  T  T  T  T  T  T  
----------12-----------12-------------------------------|
--15b~-------15-12-15b-------12-15-12----12-15-12----12-|
--------------------------15----------15----------15----|
--------------------------------------------------------|
--------------------------------------------------------|
--------------------------------------------------------|


                                       |-----5-----|                
   T  T  T  T  T  T  T  T  T  T  T  T  T  T  T  T  T  S  T  T  E    
-----------------------------------------------------12-------15~--|
--15-12----12-15-12----12-15-12----12-15-12----12-15----15-12------|
--------15----------15----------15----------15---------------------|
-------------------------------------------------------------------|
-------------------------------------------------------------------|
-------------------------------------------------------------------|


   |---3--|                       |--3-|  |---3--|  |--3--|  
   T  T   T  S  T  T  S     E     E    S  S  S   S  S  S  S  
--12--------15-12-------17g21b--(21)--12--------------------|
-----15p-12-------15-12------------------15-----------------|
--------------------------------------------14b-14-12----14-|
------------------------------------------------------14----|
------------------------------------------------------------|
------------------------------------------------------------|


               |--3--|                          
   S  S  Q     S  S  S  T  T  T  T  T  T  T  T  
--------------18-17-15-17-15-14----15-14-------|
--------------------------------17-------17-15-|
--12-------------------------------------------|
-----14~-L-------------------------------------|
-----------------------------------------------|
-----------------------------------------------|


                                              |--3--|        
   T  T  T  T  T  T  T  T  T  T  T  T  S.  T  S  S  S  S  S  
--14--------------------------------------------------------|
-----17-15-13-17-15-13-12-15-13-12--------------------12-15-|
-----------------------------------14-14b-12-14-12-14-------|
------------------------------------------------------------|
------------------------------------------------------------|
------------------------------------------------------------|


               |--3--|  |--3--|  |--3--|                                 
   T  T  T  T  S  S  S  S  S  S  S  S  S  S  S  E       Q.     E  E  E   
--------------------------------------------12-------|------------------|
--12----------------15-12----12----------------15b~--|--L---------------|
-----15-14-12----14-------15----15-14-12-14----------|------------------|
--------------14-------------------------------------|---------9--0--2--|
-----------------------------------------------------|------------------|
-----------------------------------------------------|------------------|


    sld                             sld           sld                  
    Q.      E  E  E     S S  Q      E  E  E       Q.      S  S E   E   
---------------------|-----------------------|------------------------|
---------------------|-----------------------|------------------------|
--2g4~------L--2--0--|--2--------------7--9--|--7g9~------7h-9-7------|
---------------------|----2~-L----7g9--------|--------------------10--|
---------------------|-----------------------|------------------------|
---------------------|-----------------------|------------------------|


  Q    S  S  Q     S T   T   
----------------------------|
----------------------------|
----------------------------|
--9----L-10~-L----10-9h-10h-|
----------------------------|
----------------------------|


  E.   T   T  E   T  T  T  T  T  T  T  T  T  T  T  T   
--------------------------------------------15-17-19b-|
-----------------------------------15-17-19-----------|
--------------------------14-16-17--------------------|
--9----------16--14-16-17-----------------------------|
------14h-15------------------------------------------|
------------------------------------------------------|


        |--3--|  |-----5-----|  |--3--|       
  Q     S  S  S  T  T  T  T  T  S  S  S  E    
--L----12-------------12---------------------|
----------12-15----12----15-12---------------|
----------------15-------------15-14-14-12~--|
---------------------------------------------|
---------------------------------------------|
---------------------------------------------|


   T  T  T  S  T  T  T  T  T  S  Q.        E   Q      Q        E    
-----------12-12----------12-15b-L------|--L--15b----15pbr----12~--|
--------13-------13----13---------------|--------------------------|
-----14-------------14------------------|--------------------------|
----------------------------------------|--------------------------|
--12------------------------------------|--------------------------|
----------------------------------------|--------------------------|


                                          |--3--|              
  E   T  T  T  T  T  T  T  T  T  T  T  T  S  S  S  T  T  T  T  
--L--17-15-12-12-15-12-12----12-12-------12-17-12-17-15-12-12-|
--------------------------15-------15-12----------------------|
--------------------------------------------------------------|
--------------------------------------------------------------|
--------------------------------------------------------------|
--------------------------------------------------------------|


                                    |---3--|                          
   T  T  T  T  T  T  T  T  S  T  T  T  T   T  S  T  T  T  T  T  T  S  
--15-12-12----12-12-------12-----------------12----------------------|
-----------15-------15-12----15-12----15p-12----------12-------------|
-----------------------------------15-----------15-15----15-14-12-14-|
---------------------------------------------------------------------|
---------------------------------------------------------------------|
---------------------------------------------------------------------|


   Q.       E   E      E   
-----------12-------------|
--15b-------L--15pbr--13--|
--------------------------|
--------------------------|
--------------------------|
--------------------------|


             |-----5-----|                                
   E   S. T  T  T  T  T  T  T  T  T  T  T T  T  T  S  S   
------15-14-12-------------------------------------------|
--12-----------15-13-12------------------------------12--|
------------------------14-12-11---------------------11b-|
---------------------------------14-13-10-9--------------|
--------------------------------------------12-10--------|
--------------------------------------------------12-----|


                  |--3--|  |--3--|  
  E.  S  T  S. E  S  S  S  S  S  S  
-----------------------------------|
--L--------------------10-11-12-11-|
--L---9-12p-9--L--L-12-------------|
-----------------------------------|
-----------------------------------|
-----------------------------------|


   T  T  T  T  S  S  E   T  T  T  T  T  T  T  T  T  S. 
--------10-------12-15--12-------------12-------------|
--10-------12-11-----------15-12----12----15-12-------|
-----12--------------------------15-------------15-12-|
------------------------------------------------------|
------------------------------------------------------|
------------------------------------------------------|


   |--3--|                                                             |-3-|  
   S  S  S  T  T  T  T  E    Q      S     S       E    E      E   Q    S S S  
-----------20-17-------20~--20~----21br-(21)br-|--L--(21)br--21b--L------4---|
--------17-------17----------------------------|-----------------------4---4-|
-----17-------------17-------------------------|-----------------------------|
--19-------------------------------------------|-----------------------------|
-----------------------------------------------|-----------------------------|
-----------------------------------------------|-----------------------------|


  Q.      Q.           E  E  E    E  E  E     Q.      E  E  E   
--------------------|--4-------------------|----------4--------|
--7b------7pb~------|-----4----------------|--7b---------7--5--|
--------------------|--------6br--4-----4--|-------------------|
--------------------|----------------6-----|-------------------|
--------------------|----------------------|-------------------|
--------------------|----------------------|-------------------|


                              |-3-|  
  T T T T T T S T T T T E  E  S S S  
------------------------------------|
--4-5-7-5-4-------------------------|
------------6-4-6-4-3-----------4-6-|
----------------------6-5--5--6-----|
------------------------------------|
------------------------------------|


  |-3-| |-3|  |-3-| |-3-|  |--3--|               
  E   S E  S  E   S E   S  S  S  S  T  T  T  T   
------------------------------------------------|
------------------------------------------------|
--6b--4-6--6~-6~--4-------16----16----16-16-18h-|
--------------------6--18----18----18-----------|
------------------------------------------------|
------------------------------------------------|


                                                           |---3--|        
   T  X   X  T  T  T  T  T  X   X  T  T  T  T  T  T  T  T  S   S  S  E     
-----------------------------------------------------------------16-------|
--------------------------------------------------------------16----19b~--|
--16-18p-16----18-16----16-18p-16----16-18-19-18-16----18-18b-------------|
------------18-------18-----------18----------------18--------------------|
--------------------------------------------------------------------------|
--------------------------------------------------------------------------|


                  |--3--|                                               
  E   T  T  T  T  S  S  S  S  S  Q         E   E    E    E    E    E    
-----------------16-21-16---------------|-----21b--21b--21b--21b--21b--|
--L--------16-------------17------------|------------------------------|
-----18-18----18-------------18-16b~----|--0---------------------------|
----------------------------------------|------------------------------|
----------------------------------------|------------------------------|
----------------------------------------|------------------------------|


   |---3--|                                            
   E      S  Q     T  T  T  T  T  T  T  T  T  T  T  T  
--21pbr--19-16~----L-16----16-21----16-21-19-16-16-19-|
------------------------20-------19-------------------|
------------------------------------------------------|
------------------------------------------------------|
------------------------------------------------------|
------------------------------------------------------|


                           |--3--|                                
   T  T  T  T  T  T  T  T  S  S  S  T  T  T  T  T  S. T  T  T  T  
--16-16----16-16-------------------16----------------------16----|
--------20-------19-16----16----16----19-16----16-19-16-19----16-|
-----------------------19----19-------------19-------------------|
-----------------------------------------------------------------|
-----------------------------------------------------------------|
-----------------------------------------------------------------|


   Q.       E   E     E   
-----------16------------|
--19b----------19br--17--|
-------------------------|
-------------------------|
-------------------------|
-------------------------|


   T  T  T  T  T  T  T  T  T  T  T  T  T  T  T  T  T  T  T  T  T  T  T  T  
--------------------------------------------------------------------------|
--16-19-17-16-14-17-16-14-12-16-14-12-11-14-12-11----12-11-------11-------|
--------------------------------------------------13-------13-12----13-12-|
--------------------------------------------------------------------------|
--------------------------------------------------------------------------|
--------------------------------------------------------------------------|


   S  S  S  S  S  S  E.   S E   
--------11-------11-16~---x-0--|
-----12-------12---------------|
--13-------13------------------|
-------------------------------|
-------------------------------|
-------------------------------|


   T   T  T   T  T  T  T  T  T  T  T  T  T  T  T  T  T  T  T  T  T  T  T  T   
------16-----16-21----16-21-19-16----19-16----16-16----16-16-----------------|
--19b----19b-------19-------------19-------19-------19-------19-16-----------|
-------------------------------------------------------------------19-18-16~-|
-----------------------------------------------------------------------------|
-----------------------------------------------------------------------------|
-----------------------------------------------------------------------------|


                 |--3--|                                          
  S  T  T  T  T  T  T  T  T  T  T  T  T  T  T  T  T  T  T  T  E   
----21-16----------16-21----------16-21-16----------16-21-16-21--|
----------17----17-------17----17----------17----17--------------|
--L----------18-------------18----------------18-----------------|
-----------------------------------------------------------------|
-----------------------------------------------------------------|
-----------------------------------------------------------------|


   E  E   E    Q    S S     E   Q      T S.  S  E.     E.  S  S S  T S. E  E   
--19-----19b~--L----0---|-------9~-------9--21-21---|--9--------9-12-9--L--9--|
------0-----------------|--12b--------12------------|-------------------------|
------------------------|---------------------------|------9-11---------------|
------------------------|---------------------------|-------------------------|
------------------------|---------------------------|-------------------------|
------------------------|---------------------------|-------------------------|


   Q.       Q        E     T  T  T T T  T T T T T T T T T T T S S S S  
------------------------|---------------------------------------------|
--12b------12pbr----10--|--9-10-12-9-7-10-9-7-5-9-7-5-4-7-5-4---4---4-|
------------------------|-------------------------------------6---5---|
------------------------|---------------------------------------------|
------------------------|---------------------------------------------|
------------------------|---------------------------------------------|


  S S S S S S S S S S S S    S S S S S S S S S S E    
------4-9-4-------4-8-9-4-|------------5---4---------|
----5-------5---5---------|--5---4-5-----7---5-4-----|
--6-----------6-----------|----6-----0-----------6~--|
--------------------------|--------------------------|
--------------------------|--------------------------|
--------------------------|--------------------------|


  S  T  T T  T T  T  S S   Q.      
----------9-14-9------------------|
-------10--------10---------------|
--L-11--------------11-9b~-L------|
----------------------------------|
----------------------------------|
----------------------------------|


   T  T  T  T  T  T  T  T  T  T  T  T  T  T  T  T  T  T  T  T  T  T  T  T  
--17-16-14-------------------------------------------------------16-14----|
-----------17-16-14-------17-16-14-16-14----14-------------14-17-------17-|
--------------------16-14----------------17----16-14-14-16----------------|
--------------------------------------------------------------------------|
--------------------------------------------------------------------------|
--------------------------------------------------------------------------|


         sld                                                                    
   S     E.   E   Q.          E.      S  E   E  E  E      Q.       Q        E   
-----19g21~---L--21~------|--21b~---(21)--------------|------------------------|
--14----------------------|------------------------9--|--12b------12pbr----10--|
--------------------------|---------------------9-----|------------------------|
--------------------------|-----------------11--------|------------------------|
--------------------------|---------------------------|------------------------|
--------------------------|---------------------------|------------------------|


  |---3--|                                                       
  T   T  T  T  T T  T  T T  T T T  T T T  T T T  T T T T T T  T  
-----------12-11-9----------------------------------------------|
--9h-10p-9---------12-10-8--------------------------------------|
---------------------------11-9-8-------------------------------|
----------------------------------11-9-7------------------------|
-----------------------------------------11-9-7-----------------|
------------------------------------------------11-9-8-9-8-9-11-|


     sld                           sld                                       
                                                             |--3--|         
     Q.      S  T  T S  E.         S  T  T  T  T  T  T  E    S  S  S  Q      
-----------------------------|----------------------------------------------|
-----------------------------|-------------------------14~-----------14~----|
-----------------------------|-------------------11-14---------11-13--------|
--9g11~------L-14-13-L-14~---|--9g11-14-11-13-14------------14--------------|
-----------------------------|----------------------------------------------|
-----------------------------|----------------------------------------------|


  Q.     E  E  E     Q.        Q.          H.              
------------------|--------------------|------------------|
------------------|--------------------|--15b~------------|
------------------|--------------------|------------------|
--4------L--4--6--|--7~------(10)------|------------------|
--4------L--------|----------(10)------|------------------|
--2------L--2-----|--------------------|------------------|


  E  S.  T  T  T  S   T  T  T  S   T  T  S   T  T  T  
--------12-----------12-----------12--------12-------|
--L--L-----15-12-15b----15-12-15b----12-15b----15-12-|
-----------------------------------------------------|
-----------------------------------------------------|
-----------------------------------------------------|
-----------------------------------------------------|


            |---3--|  |--3--|                 |--3--|       |--3--|             
   Q.       S   S  S  S  S  S  T  T  T  T     S  S  S  Q    S  S  S  E.   T  T  
---------------12-12----------------------|------------------------------------|
--15b------15b-------------15-------------|------------------------------------|
---------------------14-12----14-14-------|--14----12---------12-14-12---14-15-|
------------------------------------12-14-|-----14----14----L------------------|
------------------------------------------|------------------------------------|
------------------------------------------|------------------------------------|


  S  T  T  T  T  T  T  T  T  T  T  T  T  T  T  T  T  T  T  T  T  T  T  
----------------------------------------------------------------------|
----------------12----------------12----------------12----------------|
--L-14-12-14-15----15-14-12-14-15----15-14-12-14-15----15-14-12-14-15-|
----------------------------------------------------------------------|
----------------------------------------------------------------------|
----------------------------------------------------------------------|


   S  S  E.    S  E    T  T  T  T  T  T  T  T  
-----12-------12-15~-----------17-15-------15-|
--12----15b-----------17-15-17-------17-15----|
----------------------------------------------|
----------------------------------------------|
----------------------------------------------|
----------------------------------------------|


   T  T  T  T  T  T  T  T  T  T  T  T  T  T  T  T  Q         Q.     E  E  E   
----------------------------------------------------------|------------------|
--17-17-15-17-17-15----17-15-------------------15---------|------------------|
--------------------16-------16-15-16-15-14-------14b~----|--L------L--------|
--------------------------------------------17------------|------------0--2--|
----------------------------------------------------------|------------------|
----------------------------------------------------------|------------------|


    sld                                           sld       sld        
    Q.      E  E  E     S S  Q      E  E  E       Q.        E  E   E   
---------------------|-----------------------|------------------------|
---------------------|-----------------------|------------------------|
--2g4~------L--2--0--|--2--------------7--9--|--7g9~------7g9--7------|
---------------------|----2~-L----7g9--------|--------------------10--|
---------------------|-----------------------|------------------------|
---------------------|-----------------------|------------------------|


  E.   T  S. T  T  T  T  T  T  T T  T  T T  T  T T  
------12-14-12-11----------------------------------|
------------------13-12-10-------------------------|
---------------------------12-11-9-----------------|
--9--------------------------------12-10-9---------|
-------------------------------------------12-10-9-|
---------------------------------------------------|


  Q     S  T  T  T  T  T  T  T  T  T  T  T  T  T  T  
-------------------------------------------------12-|
-------------------------------12----12-12-12-12----|
--9~----L-------12----12-14-15----15----------------|
----------12-14----14-------------------------------|
----------------------------------------------------|
----------------------------------------------------|


             |--3--|  |--3--|  |--3--|  |--3--|  |--|   
   S   T  T  S  S  S  S  S  S  S  S  S  S  S  S  S  E   
------12----------12-----------------------------------|
--15b----12-15-------12--------------------------------|
---------------14-------14-12----14--------------------|
------------------------------14----12-14-12-----------|
---------------------------------------------14-13-12--|
-------------------------------------------------------|


      |--3--|                                                              
  E   S  S  S  T  T  T  T  T  T  T  T  Q         E   Q      E    E    E    
-----------------------12-17-12---------------|-----21b----21b--21b--21b--|
--------------------13----------13------------|---------------------------|
--------------14-14----------------14-12b~----|--0------------------------|
-----------14---------------------------------|---------------------------|
--L--12-15------------------------------------|---------------------------|
----------------------------------------------|---------------------------|


   Q.       T  T  T  T  T  T  T  T  T  T  T  T  
--21b------20-19-17----19-17-------17----------|
--------------------20-------20-19----20-19-17-|
-----------------------------------------------|
-----------------------------------------------|
-----------------------------------------------|
-----------------------------------------------|


   T  T  T  T  T  T  T  T  T  T  T  T  T  T  T  T  T  T  T  T  T  T  T  T  
--------------------------------------------------------------------------|
--20-19-17----19-17-------17----------------------------------------------|
-----------19-------19-17----19-17-16-19-17-16----17-16-------16----------|
-----------------------------------------------19-------19-17----19-17-16-|
--------------------------------------------------------------------------|
--------------------------------------------------------------------------|


  Q.      E  E  E     Q     S S    Q      S  S     
-------------------|----------7br-(7)~------19br~-|
-------------------|----------------------x-------|
--9~------L--7--5--|--4~----L---------------------|
-------------------|------------------------------|
-------------------|------------------------------|
-------------------|------------------------------|


           |--|                    
  Q.       S  E   S   S  T  T  S   
--L~------12---------12-----------|
-------------15--15b----15-12-----|
------------------------------14b-|
----------------------------------|
----------------------------------|
----------------------------------|


              |--3--|  |---3--|        |--3--|          
  T  T  T  T  S  S  S  S   S  S  S  S  S  S  S  S  S    
----12-------12----------------------------------------|
-------15-12----15-12-----12-15-12---------------------|
--L-------------------14b----------14b-L-12----14-12b~-|
--------------------------------------------14---------|
-------------------------------------------------------|
-------------------------------------------------------|


  Q.      T  T  T  T  T  T  T  T  T  T  T  T  
---------------------------------------------|
---------------------12----12----------------|
--L---------12-14-15----15----15-14-12-14-15-|
---------14----------------------------------|
---------------------------------------------|
---------------------------------------------|


   |--3--|  |--3--|  |--3--|                                     
   S  S  S  S  S  S  S  S  S  E   E   E      Q.      E   E   E   
-----------------------------------------|----------------------|
--12----12----12-------------------------|----------------------|
-----15----15----15-14-12--------12--14--|--14b------L--14--12--|
--------------------------14-14----------|----------------------|
-----------------------------------------|----------------------|
-----------------------------------------|----------------------|


                  sld                                 
   S  S  Q        E   E   E      Q.       E   E   E   
-----------------------------|-----------12----------|
-------------------------12--|--15b----------15--13--|
--14-----------------12------|-----------------------|
-----14~-L----12g14----------|-----------------------|
-----------------------------|-----------------------|
-----------------------------|-----------------------|


   E   T  T  T  T  T  T  T  T  T T T  T T T T T  T T  T T  
------15-14-12-11-----------------------------------------|
--12--------------13-12-10--------------------------------|
---------------------------12-11-9-8-11-9-8-9-8----8------|
------------------------------------------------10---10-9-|
----------------------------------------------------------|
----------------------------------------------------------|


                                   |--3--|  
   T  T T  T T  T  T T  T S. Q     S  S  S  
-------------------------------------------|
-------------------------------------------|
--------------------------9~-L----------12-|
-----11-9----9--------------------12-14----|
--12------12---12-10-9---------------------|
-----------------------12------------------|


                                 |--3--|           
   T  T  T  T  T  T  T  T  T  S. S  S  S  S  E.    
--------------------------12----------------------|
--------12-------------12----15-15----12----------|
--14-15----15-14-12-14-------------14----14-12~---|
--------------------------------------------------|
--------------------------------------------------|
--------------------------------------------------|


                    |--3--|  |--3--|                                  
  S  S  T  T  T  T  S  S  S  S  S  S  Q        E   Q      Q      E    
----------------12-17-12--------------------|-----21b----21b----21b--|
-------------13----------13-----------------|------------------------|
--L-------14----------------14--------------|------------------------|
-------14----------------------14-----------|------------------------|
----12----------------------------15-12~----|------------------------|
--------------------------------------------|------------------------|


            |-3-|  |--3--|  |--3--|                                         
   Q     E  E   S  S  S  S  S  S  S     S  T  T  S  T  T  E   E   E   S  S  
--21b-------------------------------|-----------------------------------12-|
---------------------------12-------|--------------------------------12----|
------------------12-14-15----15-14-|--12-14----12-14-12~-L~--L------------|
---------------14-------------------|--------14------------------14--------|
------------------------------------|--------------------------------------|
------------------------------------|--------------------------------------|


   Q.          E   E    E   
------------<>12-----------|
--15b~------------15b--13--|
---------------------------|
---------------------------|
---------------------------|
---------------------------|


   T  T  T  T  T  T  T  T T  T  T T T  T T T T T T T T T T T  
-------------------------------------------------------------|
--12-15-13-12-10-13-12-10-8-12-10-8-7-10-8-7---8-7-----7-----|
---------------------------------------------9-----9-8---9-8-|
-------------------------------------------------------------|
-------------------------------------------------------------|
-------------------------------------------------------------|


                                                                     sld      
  S S  S S  S S S  S S S  T T T  T    T T  T T T  T T T T  T T T     Q    E   
-----------------------------------|-----------------------------------------|
-----------------------------------|-----------------------------------------|
--9--------------------------------|-------------------------7-9-------------|
----9------------------------------|--7-9-10-7-9-10-9-7-9-10-----12g14-------|
------10-9-10-7-9-10-7-9-10-7-9-10-|-----------------------------------------|
-----------------------------------|-----------------------------------------|


                                 |--3--|      |--3--|                       
   H.             E.   S     E   S  S  S  E   S  S  S  S  E.   S  S  S  S   
-------------------------|--15--12-15-12-----------12-15-20---19-17-15-14h-|
--15b~------------L------|---------------13-----13-------------------------|
----------------------12-|-------------------12----------------------------|
-------------------------|-------------------------------------------------|
-------------------------|-------------------------------------------------|
-------------------------|-------------------------------------------------|


   |--6--|  |--6--|  |--3--|                         
   S  S  S  S  S  S  S  S  S  S  S  Q.         E     
--17-14-------------14-15-17-19-20-21pb~------20br--|
--------15----15-17---------------------------------|
-----------14---------------------------------------|
----------------------------------------------------|
----------------------------------------------------|
----------------------------------------------------|


                        |-----5-----|  |-----5-----|  
  E   S  S  S  S  S  S  S  S  S  S  S  S  S  S  S  S  
--L--19-17-16-17-16----------16-19-16-21-16-19-16----|
--------------------17----17----------------------17-|
-----------------------16----------------------------|
-----------------------------------------------------|
-----------------------------------------------------|
-----------------------------------------------------|


   |-----5-----|  |-----5-----|              |---3---|                          
   S  S  S  S  S  S  S  S  S  S  S  S  S  S  E   E   E      W                   
--------16-19-16-21-16-19-16----------16-19-----16--19--|--21b~----------------|
-----17----------------------17----17-------17----------|----------------------|
--16----------------------------16----------------------|----------------------|
--------------------------------------------------------|----------------------|
--------------------------------------------------------|----------------------|
--------------------------------------------------------|----------------------|


    H            H           W                  
--(21)pbr-----------------|-------------------||
--------------------------|-------------------||
--------------------------|-------------------||
--------------------------|-------------------||
--------------------------|-------------------||
--------------------------|-------------------||




Duration Legend
---------------
W - whole
H - half
Q - quarter
E - 8th
S - 16th
T - 32nd
X - 64th
. - note dotted
|-n-|  - n-tuplets


Tablature Legend
----------------
L - tied note
x - dead note
g - grace note
(n) - ghost note
> - accentuded note
NH - natural harmonic
AH - artificial harmonic
TH - tapped harmonic
SH - semi harmonic
PH - pitch harmonic
h - hammer on
p - pull off
b - bend
br - bendRelease
pb - preBend
pbr - preBendRelease
brb - bendReleaseBend
\n/ - tremolo bar dip
\n - tremolo bar dive
-/n - tremolo bar Release up
/n\ - tremolo bar inverted dip
/n - tremolo bar return
-\n - tremolo bar Release down
S - shift slide
s - legato slide
/ -  slide into from below or out of upwards
\ -  slide into from above or out of downwards
~ - vibrato
W - wide vibrato
tr - trill
TP - tremolo picking
T - tapping
S - slap
P - pop
< - fade in
^ - brush up
v - brush down





Comments


Popular Yngwie Malmsteen tabs & chords
Magic Mirror Bass Tabs
Air On A Theme Tabs
Black Star 2 Tabs
Caprici Di Diablo Tabs
Dreamin Tabs
General Hospital Tabs
Overture 1622 1 Tabs
Riots In The Dongeon Tabs
Soldier Without Faith Tabs
The Seventh Sign 1 Tabs


Song lyrics



↑ Back to top | Tablatures and chords are parodies/interpretations of the original songs. You may use it for private study, scholarship, research or language learning purposes only
© 2014 AZChords.com Contact us | Privacy policy | DMCA | Add/correct tabs | Request tabs | Top 50 tabs