>
 >
Blitzkrieg 2

Blitzkrieg 2 Guitar Tabs

Yngwie Malmsteen - Blitzkrieg 2 chords, tabs, tablatures, lyrics

Guitar lessons | Add/correct | Request | Top 50 tabs Artists:  A B C D E F G H I J K L M N O P Q R S T U V W X Y Z 0-9

Blitzkrieg 2 Guitar Tabs – Yngwie Malmsteen

CD, Sheet music, Poster

Do you like Blitzkrieg 2? Share with your friends now
TabsTabs v2Tabs v3Tabs v4
BLITZKRIEG 
				
                                    by
       			 Yngwie Johann Malmsteen
				
		             Album "ALCHEMY"	



    -----------------------------------------12h17p12------------------
    ---------------------------13~--------13----------13---------------
    ------------14~---------14---------14----------------14------------
    ------10-14-------10-14---------14----------------------14--10-----
    ---12----------------------------------------------------------12~-
    -------------------------------------------------------------------


    ------------------------------------------12s17--s21fb~-
    ---------------------------13~---------13---------------
    ------------14~---------14----------14------------------
    ------10-14-------10-14---------14----------------------
    ---12---------------------------------------------------
    --------------------------------------------------------


    --13-12-10-------------------------------
    -----------13-12-10----------------------
    --------------------12-10-9--------------
    ----------------------------12-10-9------
    -------------------------------------12~-
    -----------------------------------------X4



    ---------------------------------------------------------------------
    ---------------------------------------------------------------------
    ----------------------3-2-----------------------------5-4------------
    ----2-5-3-2---------3-----5-3-2-----4-7-5-4---------5------7-5-4-----
    --3---------5-3-2-4-------------4-5---------7-5-4-6--------------6-7-
    ---------------------------------------------------------------------


    ---------------------------------------------------------------------------
    ---------------------------------------------------------------------------
    ----------------------7-6---------------------------------9-8--------------
    ----6-9-7-6---------7-----9-7-6-----8-11-9-8------------9-----11-9-8-------
    ------------9-7-6-8-------------8-9-----------11-9-8-10--------------10-11-
    ---------------------------------------------------------------------------


    ------------------------------------------------------------------------
    ------------------------------------------------------------------------
    -----------------------------11-10--------------------------------------
    --10-13-11-10-------------11-------13-11-10-------12-15-13-12-----------
    --------------13-11-10-12-------------------12-13-------------15-13-12--
    ------------------------------------------------------------------------



    ---------------------------------------------14h19p14------------------
    ------------------------------------------15----------15---------------
    --------13-12-----------------------11-16----------------16-11---------
    -----13--------15-13-12----------13----------------------------13------
    --14--------------------14-15-14----------------------------------14~~-
    -----------------------------------------------------------------------


    -------------------------------------------------------
    -0-0-0-0-0-0...0-1-0-0-0-0-0-...0-12-0-0-8-7h8p7h8p7~--
    -------------------------------------------------------
    -------------------------------------------------------
    -------------------------------------------------------
    -------------------------------------------------------


					2   1 2	
    -----------------14h19p14----14-19-21fb~r-b-21br21-19~-
    --------------15----------15---------------------------
    -----------16------------------------------------------
    -----12-16---------------------------------------------
    --14---------------------------------------------------
    -------------------------------------------------------

    -------------------------------------------------------
    -0-0-0-0-0-0...0-1-0-0-0-0-0-...0-12-0-0-8-7h8p7h8p7~--
    -------------------------------------------------------
    -------------------------------------------------------
    -------------------------------------------------------
    -------------------------------------------------------


    -----------------14h19p14----------14h15p14----14h15p14----------------
    --------------15----------15----15----------17----------17-15-14-------
    -----------16----------------16----------------------------------16-15-
    -----12-16-------------------------------------------------------------
    --14-------------------------------------------------------------------
    -----------------------------------------------------------------------


    -----------------------
    -----------------------
    -----------------------
    --17-16-14-------------
    ------------17-16-14~--
    -----------------------


    --------------------14-19~--p14------------------
    -----------------15--------------15-14h15p14-----
    --------------16-----------------------------16~-
    --------12-16------------------------------------
    --14~--------------------------------------------
    -------------------------------------------------




    --14-15-14-12---------------------------------------------------------
    --------------15-14-12-11-12-14-12-11---------------------------------
    --------------------------------------11-12-11-9----------------9-11--
    -------------------------------------------------12-11-9-8-9-11-------
    ----------------------------------------------------------------------
    ----------------------------------------------------------------------


    ------------------------------------------------
    ------------------------------------------------
    --11-12-9---------------------------------------
    ----------12-11-9-8-9-11-9-8--------------------
    -----------------------------9-10-9-7-----------
    --------------------------------------10-9-7-6~-


--------------------14-19~--p14------------------
    -----------------15--------------15-14h15p14-----
    --------------16-----------------------------16~-
    --------12-16------------------------------------
    --14~--------------------------------------------
    -------------------------------------------------




    --14-15-14-12---------------------------------------------------------
    --------------15-14-12-11-12-14-12-11---------------------------------
    --------------------------------------11-12-11-9----------------9-11--
    -------------------------------------------------12-11-9-8-9-11-------
    ----------------------------------------------------------------------
    ----------------------------------------------------------------------


    ------------------------------------------------
    ------------------------------------------------
    --11-12-9---------------------------------------
    ----------12-11-9-8-9-11-9-8--------------------
    -----------------------------9-10-9-7-----------
    --------------------------------------10-9-7-6~-


    ----------------------------------------------
    ----------------------------------------------
    --12~-12p11~-11h12p11s9~--9p11h9s7~-7h9p7s6~--
    ----------------------------------------------
    ----------------------------------------------
    ----------------------------------------------


    -----9h10p9---------------14h15p14-------------15s21fb~-
    --12--------12-10-9----17----------17-15-14-------------
    --------------------11----------------------16----------
    --------------------------------------------------------
    --------------------------------------------------------
    --------------------------------------------------------




    --11p7-------7-11p7-------7--9p6-------6-9p6-------6-11p7-------7--11p7-------7-
    -------7---7--------7---7--------7---7-------7---7--------7---7---------7---7---
    ---------7------------7------------6-----------6------------7-------------7-----
    --------------------------------------------------------------------------------
    --------------------------------------------------------------------------------
    --------------------------------------------------------------------------------


    --12p9---------9--12p9---------9--13p10----------10--13p10----------10--12p9---------9-12p9---------9-
    -------10---10---------10---10----------10----10-----------10----10----------10---10--------10---10---
    ----------9---------------9----------------11-----------------11----------------9--------------9------
    ------------------------------------------------------------------------------------------------------
    ------------------------------------------------------------------------------------------------------
    ------------------------------------------------------------------------------------------------------


    --15p11----------11--15p11----------11--16p13----------13--16p13----------13-16-17~-
    --------11----11-----------11----11-----------14----14-----------14----14-----------
    -----------12-----------------12-----------------13-----------------13--------------
    ------------------------------------------------------------------------------------
    ------------------------------------------------------------------------------------
    ------------------------------------------------------------------------------------


    ----12p8------------8-10-
    ---------10---10-12------
    ------------9------------
    -------------------------
    -------------------------
    -------------------------





Comments


Popular Yngwie Malmsteen tabs & chords
Bad Blood 2 Bass Tabs
Air Tabs
Anguish And Fear 1 Tabs
Black Star 1 Tabs
Child In Time Tabs
Cry No More 2 Tabs
Demon Driver 1 Tabs
Devil In Disguise Tabs
Now Is The Time Tabs
Valley Of The Kings Intro Tabs


Song lyrics



↑ Back to top | Tablatures and chords are parodies/interpretations of the original songs. You may use it for private study, scholarship, research or language learning purposes only
© 2014 AZChords.com Contact us | Privacy policy | DMCA | Add/correct tabs | Request tabs | Top 50 tabs