>
 >
Blitzkrieg

Blitzkrieg Guitar Tabs

Yngwie Malmsteen - Blitzkrieg chords, tabs, tablatures, lyrics

Guitar lessons | Add/correct | Request | Top 50 tabs Artists:  A B C D E F G H I J K L M N O P Q R S T U V W X Y Z 0-9

Blitzkrieg Guitar Tabs – Yngwie Malmsteen

CD, Sheet music, Poster

Do you like Blitzkrieg? Share with your friends now
TabsTabs v2Tabs v3Tabs v4


                                                            
D#||--------------------------------------------------------|
A#||--------------------------------------------------13----|
F#||--------------------13-14----------------13-14-16-------|
C#||-----------12-14-15-------------12-14-15----------------|
G#||--12-14-15-------------------15-------------------------|
D#||--------------------------------------------------------|


                                                                      
--------------13-16-17-16-13-----------------------------------------|
-----13-15-17----------------17-15-13--------------------------------|
--16----------------------------------16-14-13-----------------------|
-----------------------------------------------15-14-12--------------|
--------------------------------------------------------15-14-12-----|


                                                         
--------------------------------------------------------|
--------------------------------------------------13----|
--------------------13-14----------------13-14-16-------|
-----------12-14-15-------------12-14-15----------------|
--12-14-15-------------------15-------------------------|
--------------------------------------------------------|


                                       
--------------13-16-17------24--------|
-----13-15-17-------------------------|
--16----------------------------------|
--------------------------------------|
--------------------------------------|
--------------------------------------|


                                                            
--20-19-17-16----------------------------------------------|
--------------18-17-15-------------------------------------|
-----------------------17-16-14-13-------------------------|
-----------------------------------15-14-12----------------|
--------------------------------------------15-14-12-------|
-----------------------------------------------------------|


                                                            
--20-19-17-16----------------------------------------------|
--------------18-17-15-------------------------------------|
-----------------------17-16-14-13-------------------------|
-----------------------------------15-14-12----------------|
--------------------------------------------15-14-12-------|
-----------------------------------------------------------|


                                                            
--20-19-17-16----------------------------------------------|
--------------18-17-15-------------------------------------|
-----------------------17-16-14-13-------------------------|
-----------------------------------15-14-12----------------|
--------------------------------------------15-14-12-------|
-----------------------------------------------------------|


                                                            
--20-19-17-16----------------------------------------------|
--------------18-17-15-------------------------------------|
-----------------------17-16-14-13-------------------------|
-----------------------------------15-14-12----------------|
--------------------------------------------15-14-12-------|
-----------------------------------------------------------|


                                                                      
----------------------------------|----------------------------------|
----------------------------------|----------------------------------|
----------------------3-2---------|----------------------5-4---------|
----2-5-3-2---------2-----5-3-2---|----3-7-5-3---------4-----7-5-4---|
--3---------5-3-2-4-------------4-|--5---------7-5-4-6-------------6-|
----------------------------------|----------------------------------|


                                                                           
----------------------------------|---------------------------------------|
----------------------------------|---------------------------------------|
----------------------7-6---------|-------------------------9-8-----------|
----6-9-7-6---------6-----9-7-6---|----7-11-9-7-----------8-----11-9-8----|
--7---------9-7-6-8-------------8-|--9----------11-9-8-10--------------10-|
----------------------------------|---------------------------------------|


                                                   
--------------------------------------------------|
--------------------------------------------------|
--------------------------------11-10-------------|
-----10-13-11-10-------------10-------13-11-10----|
--11-------------13-11-10-12-------------------12-|
--------------------------------------------------|


                                                   
--------------------------------------------------|
--------------------------------------------------|
--------------------------------13-12-------------|
-----11-15-13-11-------------12-------15-13-12----|
--13-------------15-13-12-14-------------------14-|
--------------------------------------------------|


                                                 
-----------------15-20-15-----------------------|
--------------16----------16--------------------|
-----------17----------------17-----------------|
--------17----------------------17--------------|
--15-18----------------------------18-15--------|
------------------------------------------------|


(The amount of the open B is not rhythmically right 
but you get the picture)                                                    
---------------------------------------------------|
--12-0-0-0-0-0-0-0-0-0-8-0-0-0-7-0-0-0-0-0-0-0-0-0-|
---------------------------------------------------|
---------------------------------------------------|
---------------------------------------------------|
---------------------------------------------------|


                                             
--------------------------------------------|
--0-0-0-0-0-12-0-0-0-0-0-0-0-0-0-8--7-8-7---|
--------------------------------------------|
--------------------------------------------|
--------------------------------------------|
--------------------------------------------|


                                                                    
----------------------------------------15-18-19-18-15-------------|
-------------------------------15-17-19----------------19-17-15----|
----------------------15-16-18----------------------------------18-|
-------------14-16-17----------------------------------------------|
----14-16-17-------------------------------------------------------|


                                              
-----------------15-21----19--21-19-18-19----|
--------15-17-19-----------------------------|
--16-18--------------------------------------|
---------------------------------------------|
---------------------------------------------|
---------------------------------------------|


                                                    
---------------------------------------------------|
--12-0-0-0-0-0-0-0-0-0-8-0-0-0-7-0-0-0-0-0-0-0-0-0-|
---------------------------------------------------|
---------------------------------------------------|
---------------------------------------------------|
---------------------------------------------------|


                                             
--------------------------------------------|
--0-0-0-0-0-12-0-0-0-0-0-0-0-0-0-8--7-8-7---|
--------------------------------------------|
--------------------------------------------|
--------------------------------------------|
--------------------------------------------|


                                                                    
----------------------------------------15-18-19-18-15-14-15-14-15-|
-------------------------------15-17-19----------------------------|
----------------------15-16-18-------------------------------------|
-------------14-16-17----------------------------------------------|
----14-16-17-------------------------------------------------------|


                                                     
--------15-14-15-14-15-14---------------------------|
--17----------------------17--19--15-17-19-17-15----|
-------------------------------------------------18-|
----------------------------------------------------|
----------------------------------------------------|
----------------------------------------------------|


                                                                            
--------------------------------------------14-19-|--------14--------------|
-----------------------------------------15-------|------------15------14--|
--16-15-------------------------------16----------|------------------------|
--------17-16-14-------------------16-------------|------------------------|
-----------------17-16--14------17----------------|------------------------|
--------------------------------------------------|------------------------|


                                                 
------------------------------------------------|
--12--------19-17-15-17-15----------------------|
---------------------------18-16-15-------------|
------------------------------------17-16-14----|
---------------------------------------------17-|
------------------------------------------------|


                                                                           
--------------------------------15-17-19-17-15-17-15----------------------|
-----------------------15-16-18----------------------18-16-15-------------|
--------------14-16-17----------------------------------------17-16-14----|
--16-14-16-17----------------------------------------------------------17-|


                                                                            
--------------------------------------------14-19-|--------14--------------|
-----------------------------------------15-------|------------15------14--|
--------------------------------------16----------|------------------------|
-----------------------------------16-------------|------------------------|
--16-14-13-14-16-14-13--14------17----------------|------------------------|
--------------------------------------------------|------------------------|


                                                 
------------------------------------------------|
--12--------19-17-15-17-15----------------------|
---------------------------18-16-15-------------|
------------------------------------17-16-14----|
---------------------------------------------17-|
------------------------------------------------|


                                                                           
--------------------------------15-17-19-17-15-17-15----------------------|
-----------------------15-16-18----------------------18-16-15-------------|
--------------14-16-17----------------------------------------17-16-14----|
--16-14-16-17----------------------------------------------------------17-|


                                                            
------------------------------------|----------------------|
------------------------------------|----------------------|
--------------------------16--------|--------16--14--------|
--------------------------17--------|--------17--16--------|
--16-14-13-14-16-14-13--------------|----------------------|
------------------------------------|----------------------|


                                                                     
----------------------|----------------------|----------------------|
----------------------|----------------------|----------------------|
--------14--12--------|--------12--11--------|--------11--9---------|
--------16--14--------|--------14--12--------|--------12--11--------|
----------------------|----------------------|----------------------|
----------------------|----------------------|----------------------|


                                                                             
--------------------------------------------------21-----|------------------|
-----------17-19-20-19-17----------------17-19-20--------|------------------|
--16-18-19----------------19-18-16-18-19-----------------|------------------|
---------------------------------------------------------|------------------|
---------------------------------------------------------|------------------|
---------------------------------------------------------|------------------|


                                                     
--10-7-------7-10-7-------7-9-6-------6-9-6-------6-|
-------7---7--------7---7-------7---7-------7---7---|
---------7------------7-----------6-----------6-----|
----------------------------------------------------|
----------------------------------------------------|
----------------------------------------------------|


                                                           
--10-7-------7-10-7-------7-12-9---------9-12-9---------9-|
-------7---7--------7---7--------10---10--------10---10---|
---------7------------7-------------9--------------9------|
----------------------------------------------------------|
----------------------------------------------------------|
----------------------------------------------------------|


                                                                     
--14-10----------10-14-10----------10-12-9---------9-12-9---------9-|
--------10----10----------10----10---------10---10--------10---10---|
-----------11----------------11---------------9--------------9------|


                                                               
--14-10----------10-14-10----------10-16-13----------13-16----|
--------10----10----------10----10----------15----15----------|
-----------11----------------11----------------16-------------|
--------------------------------------------------------------|
--------------------------------------------------------------|
--------------------------------------------------------------|


                     (Do this arpeggio for about 6 measures than go back 
                     to beginning)                                                                
--17----------------|--12--8-------------8--12--8-------------8--||
--------------------|---------10-----10------------10-----10-----||
--------------------|-------------9--------------------9---------||
--------------------|--------------------------------------------||
--------------------|--------------------------------------------||
--------------------|--------------------------------------------||





Comments


Popular Yngwie Malmsteen tabs & chords
Baroque And Roll 3 Bass Tabs
Icarus Dream Suite Opus 4 Bass Tabs
Adagio 2 Tabs
Allegro Tabs
Caprice 10 Tabs
Disciples Of Hell Tabs
Dont Let It End 1 Tabs
Eclipse Tabs
Fuguetta Tabs
Get Out Of My Jungle Tabs


Song lyrics



↑ Back to top | Tablatures and chords are parodies/interpretations of the original songs. You may use it for private study, scholarship, research or language learning purposes only
© 2014 AZChords.com Contact us | Privacy policy | DMCA | Add/correct tabs | Request tabs | Top 50 tabs