» » »

Yngwie Malmsteen, Beethovens 5th Symphony Bass tabs (ver.1)

Artists:  A B C D E F G H I J K L M N O P Q R S T U V W X Y Z # 

Beethovens 5th Symphony Bass tabs (ver.1)

Yngwie Malmsteen Tabs
 Rating:
4/5 (4 votes)
Beethovens 5th Symphony lessons Tabs too difficult? Try these video lessons and learn fast
                
BEETHOVEN'S 5TH SYMPHONY (Bassline)
As recorded by Yngwie Malmsteen





Gtr I (E A D G) - 'Untitled'

 Intro
  Q=160
 2/4
  Gtr I
  Wx8
|--------|
|--------|
|--------|
|--------|


 Main Topic
  E  E  E E    H       +H        +H       E E E E   H      +H       +H
|---11------|-16----|-(16)----|-(16)----|-------0-|------|--------|--------|
|------12-9-|-------|---------|---------|---2-4---|-4----|-(4)----|-(4)----|
|-----------|-------|---------|---------|---------|------|--------|--------|
|-----------|-------|---------|---------|---------|------|--------|--------|


  E  E  E E   H      E  E  E E   H      E  E  E E   E Q.     E Q.
|---11-11-9-|-7----|---11-11-9-|-7----|---11-11-9-|-7------|-4-------|
|-----------|------|-----------|------|-----------|--------|---------|
|-----------|------|-----------|------|-----------|--------|---------|
|-----------|------|-----------|------|-----------|--------|---------|


                                   Prelude
                                   1/4  2/4
  H      +H       +H       +H       Q    Wx7
|------|--------|--------|--------|----|--------|
|-4----|-(4)----|-(4)----|-(4)----|----|--------|
|------|--------|--------|--------|----|--------|
|------|--------|--------|--------|----|--------|


 Breakdown
  E E E E   E Q.     H      H      E E E E
|---------|-4------|------|------|---------|
|---4-4-4-|--------|------|------|---4-4-4-|
|---------|--------|------|------|---------|
|---------|--------|------|------|---------|


  E Q.     H      +H       H      +H
|-4------|------|--------|-4----|-(4)--|
|--------|-4----|-(4)----|------|------|
|--------|------|--------|------|------|
|--------|------|--------|------|------|


  H      H      H      H      H       H      H      +H       E  Q.
|-4----|-4----|-9----|-8----|-9----|-11----|------|--------|---16----|
|------|------|------|------|------|-------|-9----|-(9)----|---------|
|------|------|------|------|------|-------|------|--------|---------|
|------|------|------|------|------|-------|------|--------|---------|


   +E   E  Q    H       +H        +H
|-(16)-------|-------|---------|---------|
|------17-14-|-------|---------|---------|
|------------|-16----|-(16)----|-(16)----|
|------------|-------|---------|---------|


   +Q.    E    H       +H        +H        +H
|-----------|-------|---------|---------|---------|
|-----------|-------|---------|---------|---------|
|-(16)------|-14----|-(14)----|-(14)----|-(14)----|
|--------14-|-------|---------|---------|---------|


                         Interlude
  H      +H       Q  Q    Wx33
|-4----|-(4)----|-2-----|---------|
|------|--------|-------|---------|
|------|--------|-------|---------|
|------|--------|-------|---------|


 Guitar Break
  Q  Q    +H       H      +H       Q  Q    Q  Q     Q  Q     Q  Q
|-4-----|--------|-2----|-(2)----|-7-----|-9-----|-11-----|-12-----|
|----0--|-(0)----|------|--------|-------|-------|--------|--------|
|-------|--------|------|--------|-------|-------|--------|--------|
|-------|--------|------|--------|-------|-------|--------|--------|


   Q  Q     Q  Q     Q  Q     Q  Q    Q  E E   Q  E E    Q  E  E    Q  E  E
|-14-----|--------|-----9--|-----9--|-7----6-|-9----6-|-11--7-11-|-12----12-|
|--------|-14-----|-11-----|-11-----|----9---|----9---|----------|-----9----|
|--------|--------|--------|--------|--------|--------|----------|----------|
|--------|--------|--------|--------|--------|--------|----------|----------|


   E  E  E  E    E  E  E  E    E Q.
|-14-14-14-14-|-------------|---------|
|-------------|-------------|-12------|
|-------------|-12-12-12-12-|---------|
|-------------|-------------|---------|


  H      H      E E E E   E Q.    H     H
|------|------|---------|-7-----|-----|-----|
|------|------|---7-7-7-|-------|-----|-----|
|------|------|---------|-------|-----|-----|
|------|------|---------|-------|-----|-----|


  E E E E   E Q.     E E E E   E Q.
|---------|-7------|---6-6-6-|-7------|
|---7-7-7-|--------|---------|--------|
|---------|--------|---------|--------|
|---------|--------|---------|--------|


  E E E E   E E E E   E E E E   E  E  E  E
|---------|---------|---------|------------|
|---8-8-8-|-9-9-9-9-|-9-9-9-9-|---10-10-10-|
|---------|---------|---------|------------|
|---------|---------|---------|------------|


   E  E  E  E   E E E E   E E E E   E  E  E  E
|-------------|---------|---------|------------|
|-10-10-10-10-|---9-9-9-|-9-9-9-9-|---10-10-10-|
|-------------|---------|---------|------------|
|-------------|---------|---------|------------|


   E  E  E  E   E  E  E  E    E  E  E  E
|-------------|------------|--------------|
|-10-10-10-10-|---10-10-10-|-10-10-10-10--|
|-------------|------------|--------------|
|-------------|------------|--------------|


  E  E  E  E    E  E  E  E    E Q.    H     H     H     E E E E   E E E E
|------------|-------------|--------|-----|-----|-----|---------|---------|
|---10-10-10-|-10-10-10-10-|-10-----|-----|-----|-----|-7-7-7-7-|-7-7-7-7-|
|------------|-------------|--------|-----|-----|-----|---------|---------|
|------------|-------------|--------|-----|-----|-----|---------|---------|


                                     Bridge
  E E E E   E E E E   E E E E   H     Wx5
|---------|---------|---------|-----|--------|
|-7-7-7-7-|-7-7-7-7-|-7-7-7-7-|-7---|--------|
|---------|---------|---------|-----|--------|
|---------|---------|---------|-----|--------|


  E E E E   E E E E   E E E E   E E E E   E E E E   E E E E   E E E E
|---------|---------|---------|---------|---------|-7-7-9-9-|-6-6-7-7--|
|-2-2-2-2-|-2-2-2-2-|-2-2-2-2-|-2-2-2-2-|-2-2-2-2-|---------|----------|
|---------|---------|---------|---------|---------|---------|----------|
|---------|---------|---------|---------|---------|---------|----------|


  E E E E   E E E E   E E E E   E E E E   E E E E   E E E E   E E E E
|-4-4-6-6-|-----2-2-|-----0-0-|---------|-7-7-9-9-|-7-7-7-7-|-7-7-7-7--|
|---------|-5-5-----|-4-4-----|-2-2-4-4-|---------|---------|----------|
|---------|---------|---------|---------|---------|---------|----------|
|---------|---------|---------|---------|---------|---------|----------|


  E E E E   E E E E   E E E E   E E E E   E E E  E    H       +Q    Q
|-7-7-7-7-|-7-7-7-7-|-9-9-9-9-|-9-9-9-9-|-9-9-9-14-|-16----|-(16)-------|
|---------|---------|---------|---------|----------|-------|------------|
|---------|---------|---------|---------|----------|-------|-------16---|
|---------|---------|---------|---------|----------|-------|------------|


   H       +Q    Q     H       +Q    Q
|-------|-------14--|-16----|-(16)------|
|-------|-----------|-------|-----------|
|-17----|-(17)------|-------|-------17--|
|-------|-----------|-------|-----------|


   H       Q   Q     Q   Q     Q   Q     Q   Q
|-------|-11--13--|-15------|-13--15--|-16------|
|-14----|---------|-----16--|---------|-----16--|
|-------|---------|---------|---------|---------|
|-------|---------|---------|---------|---------|


   Q   Q    Q   Q    Q   Q    Q   Q    Q   Q    H      +H       +H      Q  Q
|--------|--------|--------|--------|-----15-|------|--------|--------|-7--9-|
|-17-----|-14-----|-----14-|-16--15-|-16-----|------|--------|--------|------|
|-----17-|-----16-|-17-----|--------|--------|-14---|-(14)---|-(14)---|------|
|--------|--------|--------|--------|--------|------|--------|--------|------|


   Q   Q    Wx2      Q  Q    Q  Q    Wx2      Q  Q    Q  Q    Wx6
|-11------|--------|-6--7--|-9--6--|--------|-3--4--|-6--3--|--------|
|-----12--|--------|-------|-------|--------|-------|-------|--------|
|---------|--------|-------|-------|--------|-------|-------|--------|
|---------|--------|-------|-------|--------|-------|-------|--------|


  Q  Q    Q  Q    Q  Q    Wx3      Q  Q    H      Q  Q    H      H
|-9--7--|-7-----|-6-----|--------|-9--7--|------|-9--7--|------|-6----|
|-------|-------|-------|--------|-------|------|-------|------|------|
|-------|-------|-------|--------|-------|------|-------|------|------|
|-------|-------|-------|--------|-------|------|-------|------|------|


                                Outro
  E  E  E  E      E  E  E  E  9x  H       +H
|---11-11-11-||--11-11-11-11--||-------|---------|
|------------||o-------------o||-12----|-(12)----|
|------------||o-------------o||-------|---------|
|------------||---------------||-------|---------|


   +H       E E E E   H      +H       +H
|---------|---9-9-9-|-6----|-(6)----|-(6)----|
|-(12)----|---------|------|--------|--------|
|---------|---------|------|--------|--------|
|---------|---------|------|--------|--------|


  Wx8      E  E  E  E    Q  Q    E  E  E  E
|--------|------------|-16-----|------------|
|--------|---16-16-16-|--------|---16-16-16-|
|--------|------------|--------|------------|
|--------|------------|--------|------------|


   Q  Q    E  E  E  E    E E  E E    E E  E E
|-16-----|------------|-16--------|-16--------|
|--------|---16-16-16-|------16---|------16---|
|--------|------------|-----------|-----------|
|--------|------------|-----------|-----------|


   E E  E E    E E  E E    Q  Q     H       Q  Q
|-16--------|-16--------|-16-----|-------|--------*|
|------16---|------16---|--------|-16----|--------*|
|-----------|-----------|--------|-------|-14-----*|
|-----------|-----------|--------|-------|--------*|



Duration Legend
---------------
W - whole; H - half; Q - quarter; E - 8th; S - 16th; T - 32nd; X - 64th; a - acciaccatura
+ - note tied to previous; . - note dotted; .. - note double dotted
Uncapitalized letters represent notes that are staccato (1/2 duration)
Irregular groupings are notated above the duration line
Duration letters will always appear directly above the note/fret number it represents the
duration for.  Duration letters with no fret number below them represent rests.  Multi-
bar rests are notated in the form Wxn, where n is the number of bars to rest for.  Low
melody durations appear below the staff

Tablature Legend
----------------
 h   - hammer-on
 p   - pull-off
 b   - bend
 pb  - pre-bend
 r   - bend release (if no number after the r, then release immediately)
 /\  - slide into or out of (from/to "nowhere")
 s   - legato slide
 S   - shift slide
 - natural harmonic
[n]  - artificial harmonic
n(n) - tapped harmonic
 ~   - vibrato
 tr  - trill
 T   - tap
 TP  - trem. picking
 PM  - palm muting
\n/  - tremolo bar dip; n = amount to dip
 \n  - tremolo bar down
 n/  - tremolo bar up
/n\  - tremolo bar inverted dip
 =   - hold bend; also acts as connecting device for hammers/pulls
 <> - volume swell (louder/softer)
 x   - on rhythm slash represents muted slash
 o   - on rhythm slash represents single note slash

Misc Legend
-----------
 |  - bar
||  - double bar
||o - repeat start
o|| - repeat end
*|  - double bar (ending)
 :  - bar (freetime)
 $  - Segno
 &  - Coda
Tempo markers -  = BPM(8/16=s8/s16), where s8 = swing 8ths, s16 = swing 16ths
            
Submit corrections

comments powered by Disqus
↑ Back to top | Yngwie Malmsteen Bass for Beethovens 5th Symphony. Lyrics for acoustic guitar and electric guitar. Tablatures and chords are parodies/interpretations of the original songs. You may use it for private study, scholarship, research or language learning purposes only