» » »

Yngwie Malmsteen, Baroque And Roll Bass tabs (ver.1)

Artists:  A B C D E F G H I J K L M N O P Q R S T U V W X Y Z # 

Baroque And Roll Bass tabs (ver.1)

Yngwie Malmsteen Tabs
 Rating:
4/5 (4 votes)
Baroque And Roll lessons Tabs too difficult? Try these video lessons and learn fast
                Yngwie Malmsteen

F#||-------------------|----------------------|-------------------------|
C#||-------------------|----------------------|-------------------------|
G#||-------------------|--7~------------------|--5~-----2-3-5-3~--------|
D#||----------------5--|---------4--5~-----5--|----------------------2--|


                                                                     
----------------------|----------------------|----------------------|
----------------------|----------------------|----------------------|
------------0~--------|----------------------|--7~------------------|
--4~-----4---------5--|--0------4--5~-----5--|---------4--5~-----5--|


                                                                        
-------------------------|----------------------|----------------------|
-------------------------|----------------------|----------------------|
--5~-----2-3-5-3~--------|------------0~--------|----------------------|
----------------------2--|--4~-----4---------5--|--0------4--5~-----5--|


                                                                            
--------------------|-------------------|----------------------------------|
--------------------|-------------------|----------------------------------|
--------------------|-------------------|----------------------------------|
--0--------0--------|--0----------------|--5-5-5-5-7-7-7-7-8-8-8-8-4-4-4-4-|


                                                                      
----------------------------------|----------------------------------|
----------------------------------|----------------------------------|
----------------------------------|--5-5-5-5-7-7-7-7-8-8-8-8-4-4-4-4-|
--5-5-5-5-7-7-7-7-8-8-8-8-9-9-9-9-|----------------------------------|


                              
-----------------------------|
-----------------------------|
--5-5-5-5-7-7-7-7-5---4-5----|
-----------------------------|


                                                   
--------------------------------------------------|
--------------------------------------------------|
--7-7-7-7-7-7-7-7-7-7-7-7-------------------------|
--------------------------4-4-4-4-4-4-4-4-4-4-4-4-|


                                                                      
----------------------------------|----------------------------------|
----------------------------------|----------------------------------|
----------------------------------|----------------------------------|
--5-5-5-5-7-7-7-7-8-8-8-8-4-4-4-4-|--5-5-5-5-7-7-7-7-8-8-8-8-9-9-9-9-|


                                                                 
----------------------------------|-----------------------------|
----------------------------------|-----------------------------|
--5-5-5-5-7-7-7-7-8-8-8-8-4-4-4-4-|--5-5-5-5-7-7-7-7-5---4-5----|
----------------------------------|-----------------------------|


                                                         
--------------------------4-4-4-4-4-4-10-10-10-10-10-10-|
--------------6-6-6-6-6-6-------------------------------|
--7-7-7-7-7-7-------------------------------------------|
--------------------------------------------------------|


                                                         
--------------------------------------------------------|
--------------------------7-7-7-7-7-7-10-10-10-10-10-10-|
--6-6-6-6-6-6-9-9-9-9-9-9-------------------------------|
--------------------------------------------------------|


                                                                      
----------------------------------|----------------------------------|
----------------------------------|----------------------------------|
----------------------------------|------------------------------7-7-|
--5-5-5-5-5-5-4-4-5-5-7-7-8-8-4-4-|--5-5-5-5-5-5-4-4-5-5-7-7-8-8-----|


                                                                      
----------------------------------|----------------------------------|
----------------------------------|----------------------------------|
--5-5-5-5-5-5-4-4-5-5-7-7-8-8-5-5-|--6-6-6-6-6-6-6-6-7-7-7-7---------|
----------------------------------|--------------------------4-4-4-4-|


                                                                      
----------------------------------|----------------------------------|
----------------------------------|----------------------------------|
----------------------------------|------------------------------7-7-|
--5-5-5-5-5-5-4-4-5-5-7-7-8-8-4-4-|--5-5-5-5-5-5-4-4-5-5-7-7-8-8-----|


                                                                      
----------------------------------|----------------------------------|
----------------------------------|----------------------------------|
--5-5-5-5-5-5-4-4-5-5-7-7-8-8-5-5-|--6-6-6-6-6-6-6-6-7-7-7-7---------|
----------------------------------|--------------------------4-4-4-4-|


                                                                      
----------------------------------|----------------------------------|
----------------------------------|----------------------------------|
----------------------------------|----------------------------------|
--1-1-1-1-1-1-0-0-1-1-3-3-5-5-1-1-|--2-2-2-2-2-2-2-2-2-2-2-2-1-1-2-2-|


                                                                      
----------------------------------|----------------------------------|
----------------------------------|----------------------------------|
----------------------------------|----------------------------------|
--3-3-3-3-3-3-3-3-3-3-3-3-2-2-3-3-|--4-4-4-4-4-4-4-4-4-4-4-4-4-4-4-4-|


                                                                             
----------------------------------|--------------------|--------------------|
----------------------------------|--------------------|--------------------|
----------------------------------|--------------------|--------------------|
--5-5-5-5-5-5-5-5-5-5-5-5-5-5-5-5-|--5--------------0--|--5--------------0--|


                                                                    
--------------------|--------------------|-------------------------|
--------------------|--------------------|-------------------------|
--------------------|-----------------7--|--6------6-6-6-6------6--|
--1--------------0--|--5--------------0--|-------------------------|


                                                                     
-----------------------------------------------|--------------------|
-----------------------------------------------|--------------------|
--7--------------------------------------------|--------------------|
----0-0-0-0-0-0-0-0-0-0-0-0-0-0-0-0-0-0-0-0-0--|--5--------------0--|


                                                               
--------------------|--------------------|--------------------|
--------------------|--------------------|--------------------|
--------------------|--------------------|-----------------7--|
--5--------------0--|--1--------------0--|--5--------------0--|


                                                                
--------------------|----------------------|-------------------|
--------------------|----------------------|-------------------|
--6--------9--------|----------------------|--0----------------|
--------------------|--0----0----0----0----|-------------------|


                                                      
------------------|----------------------------------|
------------------|----------------------------------|
------------------|----------------------------------|
------------------|--5-5-5-5-5-5-5-5-5-5-5-5-5-0-1-3-|


                                                                      
----------------------------------|----------------------------------|
----------------------------------|----------------------------------|
----------------------------------|--5-5-5-5-5-5-5-5-5-5-7-8-7-5-----|
--5-5-5-5-5-5-5-5-5-5-5-5-5-5-7-8-|------------------------------8-7-|


                                                                      
----------------------------------|----------------------------------|
----------------------------------|----------------------------------|
--------------------------------5-|--6-6-6-6-6-6-6-6-6-6-6-6-6-6-6-6-|
--5-5-5-5-5-5-5-5-5-5-5-5-5-7-8---|----------------------------------|


                                                                      
----------------------------------|----------------------------------|
----------------------------------|----------------------------------|
--5-5-5-5-5-5-5-5-5-5-5-5-5-5-5-5-|--3-3-3-3-3-3-3-3-3-3-3-3-3-3-3-3-|
----------------------------------|----------------------------------|


                                                              
----------------------------------|--------------------------|
----------------------------------|--------------------------|
----------------------------------|--------------------------|
--4-4-4-4-4-4-4-4-4-4-4-4-4-4-4-4-|--5--7--8--4--5--7--8--4--|


                                                           
-----------------------|----------------------------------|
-----------------------|----------------------------------|
-----------------------|----------------------------------|
--5--7--8--4--5~-------|--5-5-5-5-5-5-5-5-5-5-5-5-5-0-1-3-|


                                                                      
----------------------------------|----------------------------------|
----------------------------------|----------------------------------|
----------------------------------|--5-5-5-5-5-5-5-5-5-5-7-8-7-5-----|
--5-5-5-5-5-5-5-5-5-5-5-5-5-5-7-8-|------------------------------8-7-|


                                                                      
----------------------------------|----------------------------------|
----------------------------------|----------------------------------|
--------------------------------5-|--6-6-6-6-6-6-6-6-6-6-6-6-6-6-6-6-|
--5-5-5-5-5-5-5-5-5-5-5-5-5-7-8---|----------------------------------|


                                                                      
----------------------------------|----------------------------------|
----------------------------------|----------------------------------|
--5-5-5-5-5-5-5-5-5-5-5-5-5-5-5-5-|--3-3-3-3-3-3-3-3-3-3-3-3-3-3-3-3-|
----------------------------------|----------------------------------|


                                                              
----------------------------------|--------------------------|
----------------------------------|--------------------------|
----------------------------------|--------------------------|
--4-4-4-4-4-4-4-4-4-4-4-4-4-4-4-4-|--5--7--8--4--5--7--8--4--|


                                                               
-----------------------|--------------------------------------|
-----------------------|--------------------------------------|
-----------------------|--12-12-8-8-10-10-7-7-8-8-5-5-7-7-3-3-|
--5--7--8--4--5~-------|--------------------------------------|


                                                                          
----------------------------------|--------------------------------------|
----------------------------------|--------------------------------------|
--5-5-2-2-3-3-------------0-0-0-0-|--12-12-8-8-10-10-7-7-8-8-5-5-7-7-3-3-|
--------------0-0-1-1-3-3---------|--------------------------------------|


                                                                 
----------------------------------|-----------------------------|
----------------------------------|-----------------------------|
--5-5-2-2-3-3-------------0-0-0-0-|---------------7--8--11--12--|
--------------0-0-1-1-3-3---------|--5--7--8--10----------------|


                                                               
--------------------------------|-----------------------------|
----------12--15--14~-----------|-----------------------------|
--14--15---------------11-12~---|---------------7--8--11--12--|
--------------------------------|--5--7--8--10----------------|


                                                                
--------------------------------|------------------------------|
----------12--15--14~-----------|------------------------------|
--14--15---------------11-12~---|---------------------------2/-|
--------------------------------|--5--5--5--5--5--5--5---------|


                                                                      
----------------------------------|----------------------------------|
----------------------------------|----------------------------------|
--4-4-4-4-4-4-4-4-4-4-4-4-4-4-4-4-|--4-4-4-4-4-4-4-4-4-4-4-4-4-4-4-4-|
----------------------------------|----------------------------------|


                                                                      
----------------------------------|----------------------------------|
----------------------------------|----------------------------------|
--4-4-4-4-4-4-4-4-4-4-4-4-4-4-4-4-|--4-4-4-4-4-4-4-4-4-4-4-4-4-4-4-4-|
----------------------------------|----------------------------------|


                                                                      
----------------------------------|----------------------------------|
----------------------------------|----------------------------------|
--4-4-4-4-4-4-4-4-4-4-4-4-4-4-4-4-|--4-4-4-4-4-4-4-4-4-4-4-4-4-4-4-4-|
----------------------------------|----------------------------------|


                                                                   
-------------------------------|----------------------------------|
-------------------------------|----------------------------------|
--4-4-4-4-4-4-4-4-4-4-4-4-4/---|--7-7-7-7-7-7-7-7-7-7-7-7-7-7-7-7-|
-------------------------------|----------------------------------|


                                                                      
----------------------------------|----------------------------------|
----------------------------------|----------------------------------|
--7-7-7-7-7-7-7-7-7-7-7-7-7-7-7-7-|--7-7-7-7-7-7-7-7-7-7-7-7-7-7-7-7-|
----------------------------------|----------------------------------|


                                                                      
----------------------------------|----------------------------------|
----------------------------------|----------------------------------|
--7-7-7-7-7-7-7-7-7-7-7-7-7-7-7-7-|--7-7-7-7-7-7-7-7-7-7-7-7-7-7-7-7-|
----------------------------------|----------------------------------|


                                                                      
----------------------------------|----------------------------------|
----------------------------------|----------------------------------|
--7-7-7-7-7-7-7-7-7-7-7-7-7-7-7-7-|--7-7-7-7-7-7-7-7-7-7-7-7-7-7-7-7-|
----------------------------------|----------------------------------|


                                                                        
------------------------------------------------|----------------------|
------------------------------------------------|----------------------|
--19-19-19-19-19-19-19-19-19-19-19-19/7---------|--7~------------------|
--------------------------------------0------4--|---------4--5~-----5--|


                                                                        
-------------------------|----------------------|----------------------|
-------------------------|----------------------|----------------------|
--5~-----2-3-5-3~--------|------------0~--------|----------------------|
----------------------2--|--4~-----4---------5--|--0------4--5~-----5--|


                                                                        
----------------------|-------------------------|----------------------|
----------------------|-------------------------|----------------------|
--7~------------------|--5~-----2-3-5-3~--------|------------0~--------|
---------4--5~-----5--|----------------------2--|--4~-----4---------5--|


                                                                
----------------------|--------------------|-------------------|
----------------------|--------------------|-------------------|
----------------------|--------------------|-------------------|
--0------4--5~-----5--|--0--------0--------|--0----------------|


                                                                      
----------------------------------|----------------------------------|
----------------------------------|----------------------------------|
----------------------------------|----------------------------------|
--5-5-5-5-7-7-7-7-8-8-8-8-4-4-4-4-|--5-5-5-5-7-7-7-7-8-8-8-8-9-9-9-9-|


                                                                 
----------------------------------|-----------------------------|
----------------------------------|-----------------------------|
--5-5-5-5-7-7-7-7-8-8-8-8-4-4-4-4-|--5-5-5-5-7-7-7-7-5---4-5----|
----------------------------------|-----------------------------|


                                                   
--------------------------------------------------|
--------------------------------------------------|
--7-7-7-7-7-7-7-7-7-7-7-7-------------------------|
--------------------------4-4-4-4-4-4-4-4-4-4-4-4-|


                                                                      
----------------------------------|----------------------------------|
----------------------------------|----------------------------------|
----------------------------------|----------------------------------|
--5-5-5-5-7-7-7-7-8-8-8-8-4-4-4-4-|--5-5-5-5-7-7-7-7-8-8-8-8-9-9-9-9-|


                                                                 
----------------------------------|-----------------------------|
----------------------------------|-----------------------------|
--5-5-5-5-7-7-7-7-8-8-8-8-4-4-4-4-|--5-5-5-5-7-7-7-7-5---4-5----|
----------------------------------|-----------------------------|


                                                         
--------------------------4-4-4-4-4-4-10-10-10-10-10-10-|
--------------6-6-6-6-6-6-------------------------------|
--7-7-7-7-7-7-------------------------------------------|
--------------------------------------------------------|


                                                         
--------------------------------------------------------|
--------------------------7-7-7-7-7-7-10-10-10-10-10-10-|
--6-6-6-6-6-6-9-9-9-9-9-9-------------------------------|
--------------------------------------------------------|


                                                                      
----------------------------------|----------------------------------|
----------------------------------|----------------------------------|
----------------------------------|------------------------------7-7-|
--5-5-5-5-5-5-4-4-5-5-7-7-8-8-4-4-|--5-5-5-5-5-5-4-4-5-5-7-7-8-8-----|


                                                                      
----------------------------------|----------------------------------|
----------------------------------|----------------------------------|
--5-5-5-5-5-5-4-4-5-5-7-7-8-8-5-5-|--6-6-6-6-6-6-6-6-7-7-7-7---------|
----------------------------------|--------------------------4-4-4-4-|


                                                                      
----------------------------------|----------------------------------|
----------------------------------|----------------------------------|
----------------------------------|------------------------------7-7-|
--5-5-5-5-5-5-4-4-5-5-7-7-8-8-4-4-|--5-5-5-5-5-5-4-4-5-5-7-7-8-8-----|


                                                                      
----------------------------------|----------------------------------|
----------------------------------|----------------------------------|
--5-5-5-5-5-5-4-4-5-5-7-7-8-8-5-5-|--6-6-6-6-6-6-6-6-7-7-7-7---------|
----------------------------------|--------------------------4-4-4-4-|


                                                                      
----------------------------------|----------------------------------|
----------------------------------|----------------------------------|
----------------------------------|----------------------------------|
--1-1-1-1-1-1-0-0-1-1-3-3-5-5-1-1-|--2-2-2-2-2-2-2-2-2-2-2-2-1-1-2-2-|


                                                                      
----------------------------------|----------------------------------|
----------------------------------|----------------------------------|
----------------------------------|----------------------------------|
--3-3-3-3-3-3-3-3-3-3-3-3-2-2-3-3-|--4-4-4-4-4-4-4-4-4-4-4-4-4-4-4-4-|


                                                                     
----------------------------------|---------------------------------|
----------------------------------|---------------------------------|
----------------------------------|---------------------------------|
--5-5-5-5-5-5-5-5-5-5-5-5-5-5-5-5-|--5-5-5-5-5-5-5-5-5-5-5-5-5-5-5--|


                                                               
--------------------|--------------------|--------------------|
--------------------|--------------------|--------------------|
--------------------|--------------------|--------------------|
--5--------------0--|--5--------------0--|--1--------------0--|


                                               
--------------------|-------------------------|
--------------------|-------------------------|
-----------------7--|--6------6-6-6-6------6--|
--5--------------0--|-------------------------|


                                                                     
-----------------------------------------------|--------------------|
-----------------------------------------------|--------------------|
--7--------------------------------------------|--------------------|
----0-0-0-0-0-0-0-0-0-0-0-0-0-0-0-0-0-0-0-0-0--|--5--------------0--|


                                                               
--------------------|--------------------|--------------------|
--------------------|--------------------|--------------------|
--------------------|--------------------|-----------------7--|
--5--------------0--|--1--------------0--|--5--------------0--|


                                                                 
--------------------|----------------------|--------------------|
--------------------|----------------------|--------------------|
--6--------9--------|----------------------|--0--------0--------|
--------------------|--0----0----0----0----|--------------------|


                       
---------------------||
---------------------||
--0-------------0----||
-------------0-------||
            
Submit corrections

comments powered by Disqus
↑ Back to top | Yngwie Malmsteen Bass for Baroque And Roll. Lyrics for acoustic guitar and electric guitar. Tablatures and chords are parodies/interpretations of the original songs. You may use it for private study, scholarship, research or language learning purposes only