» » »

Yngwie Malmsteen, Bachs Bouree Tabs (ver.1)

Artists:  A B C D E F G H I J K L M N O P Q R S T U V W X Y Z # 

Bachs Bouree Tabs (ver.1)

Yngwie Malmsteen Tabs
 Rating:
2.3/5 (9 votes)
Bachs Bouree lessons Tabs too difficult? Try these video lessons and learn fast
1
                Yngwie Malmsteen
Bach's Bouree

e[--0-2-3-2-0----0-2p--------0------------------------------------------]
B[------------4h------0-2-4---3-1-0-------------------------------------]
G[----------------------------------2-0--------4-2-0---4h---------------]
D[--------------------------------------4-2-0--------2------------------]
A[----------------------------------------------------------------------]
E[----------------------------------------------------------------------]

e[--0-2-3-2-0----0-2p--------0--------------------------------------------]
B[------------4h------0-2-4---3-1-0---------------------------------------]
G[----------------------------------2-0-----------------------------------]
D[---------------------------------------454545454-5-5--------------------]
A[------------------------------------------------------------------------]
E[------------------------------------------------------------------------]

e[------------------------------------------------------------------------]
B[--------------8---------------------------------------------------------]
G[---------5-4----7-9-----------------------------------------------------]
D[--5-5-7-------------9-10-9-7--7676--7-9-10-9-7--76767676--7h------------]
A[------------------------------------------------------------------------]
E[------------------------------------------------------------------------]


e[------------------------------------------------------------------------]
B[---------8--------------10----------------------------------------------]
G[--7-5-4----7-9-------------9-11-----------------------------------------]
D[---------------9-12-11-----------11-12-11-9-89898-9-9-------------------]
A[----------------------------------------------------------------6-------]
E[-------------------------------------------------------7-6-7-9----------]

e[--7--------------5------------3p-1-0p--5-0-2p----------------------------]
B[----7-10-9-7-5-----5-8-7-5-3-------------------5-4-0---------------------]
G[-------------------------------------------------------------------------]
D[-------------------------------------------------------------------------]
A[-------------------------------------------------------------------------]
E[-------------------------------------------------------------------------]

e[-------------------------------------------------------------------------]
B[--0-5-0-2-0-4---------------0-5-0-2-0-4----------------------------------]
G[-------------------------------------------------------------------------]
D[-----------------2-------------------------------------------------------]
A[---------------2---2--4--6---------------10-9-7-6-7-9--10-9-7-12-10-9----]h]
E[-------------------------------------------------------------------------]


e[-------------------------------------------------------------------------]
B[-------------------------------------------------------------------------]
G[-------------------------------------------------------------------------]
D[-------------------------------------------------------------------------]
A[-11--12--14--12--11-12-14-12-11-1112141211121412--11---------------------]
E[-----------------------------------------------------12-7-12-0-hold------]
            
Submit corrections

comments powered by Disqus
↑ Back to top | Yngwie Malmsteen Tabs for Bachs Bouree. Lyrics for acoustic guitar and electric guitar. 1 Tablatures and chords are parodies/interpretations of the original songs. You may use it for private study, scholarship, research or language learning purposes only