» » »

Yngwie Malmsteen, Asylum Bass tabs (ver.1)

Artists:  A B C D E F G H I J K L M N O P Q R S T U V W X Y Z # 

Asylum Bass tabs (ver.1)

Yngwie Malmsteen Tabs
Rating:
0/5 (0 votes)
Asylum lessons Tabs too difficult? Try these video lessons and learn fast
                "(Part3)

ASYLUM (PART III) (Bassline)
As recorded by Yngwie Malmsteen
(From the 1999 Album ALCHEMY)

	

Music by Yngwie Malmsteen

Gtr I (Bb Eb Ab Db Gb) - 'Untitled'
Gtr II (Bb Eb Ab Db Gb) - 'Piano'

  Q=158
 4/4
  Gtr I
  W          +W           E E Q  H
|----------|------------|-------------|
|-2--------|-(2)--------|-------------|
|----------|------------|-------------|
|----------|------------|-0-----------|
|----------|------------|-------------|


              |3| |-3-| |3| |-3-|      |-3-|
  W           Q E E E E Q E E E E   Q  E E E H
|----------||---------------------|----2-2-2-2----|
|----------||---------------------|---------------|
|----------||-0-0-0-0-0-0-0-0-0-0-|-0-------------|
|----------||---------------------|---------------|
|----------||---------------------|---------------|


  |3| |-3-| |3| |-3-|                 |3| |-3-| |3| |-3-|
  Q E E E E Q E E E E   Q  Q  Q  Q    Q E E E E Q E E E E
|---------------------|-------------|---------------------|
|---------------------|-------3--2--|---------------------|
|---------------------|----2--------|-0-0-0-0-0-0-0-0-0-0-|
|-1-1-1-1-1-1-1-1-1-1-|-4-----------|---------------------|
|---------------------|-------------|---------------------|


  |3| |-3-| |3| |-3-|   |3| |-3-|    |-3-|
  Q E E E E Q E E E E   Q E E E E Q  E E E
|---------------------|----------------------|
|---------------------|--------------2-2-2---|
|-0-0-0-0-0-0-0-0-0-0-|----------------------|
|---------------------|-1-1-1-1-1-1----------|
|---------------------|----------------------|


                 |3| |-3-| |3| |-3-|   |3| |-3-| |3| |-3-|
  Q  Q  H        Q E E E E Q E E E E   Q E E E E Q E E E E
|-1----------||----------------------|---------------------|
|----3--2----||o---------------------|---------------------|
|------------||--4-4-4-4-4-4-4-4-4-4-|-4-4-4-4-4-4-4-4-4-4-|
|------------||o---------------------|---------------------|
|------------||----------------------|---------------------|


   S  S  S  S  S  S  S  S  S  S  S  S  S  S  S  S
|-18-16-14-------------14-16-14-13-------------13--|
|----------18-14-16-18-------------16-13-14-16-----|
|--------------------------------------------------|
|--------------------------------------------------|
|--------------------------------------------------|


   S  S  S  S  S  S  S  S  S  S S  S Q
|-14-13-11-------------------------------||
|----------14-10-11-13-11---------------o||
|-------------------------12-11-9--------||
|---------------------------------12-8--o||
|----------------------------------------||


  |3| |-3-| |3| |-3-|   |3| |-3-| |3| |-3-|
  Q E E E E Q E E E E   Q E E E E Q E E E E
|---------------------|----------------------|
|---------------------|----------------------|
|-5-5-5-5-5-4-4-4-4-4-|-5-5-5-5-5------------|
|---------------------|-----------2-2-2-2-2--|
|---------------------|----------------------|


                                                                    ~
  |3| |-3-| |3| |-3-|   |3| |-3-| |3| |-3-|   |3| |-3-| |3| |-3-|
  Q E E E E Q E E E E   Q E E E E Q E E E E   Q E E E E Q E E E E   W
|---------------------|---------------------|---------------------|------|
|---------------------|-----------5-5-------|---------------------|-7----|
|---------------------|---------------------|---------------------|------|
|-3-3-3-3-3-2-2-2-2-2-|-3-3-3-3-3-----3-3-3-|-3-3-3-3-3-2-2-2-2-2-|------|
|---------------------|---------------------|---------------------|------|


                                                                   1/4
                        ~
  |3| |-3-| |3| |-3-|
  Q E E E E Q E E E E   W          E E E E Q  E E   E E E E H       Q
|---------------------|----------|----------------|-------6-7----||----||
|---------------------|-7--------|----------------|-----7--------||----||
|---------------------|----------|-5---4---5------|-5-8----------||----||
|-3-3-3-3-3-2-2-2-2-2-|----------|------------5---|--------------||----||
|---------------------|----------|----------------|--------------||----||


  Q.=86
 6/8
  Gtr II
  E E E S S S S S S   E E E S S S S S S
|-------------------|-------------------|
|-------------------|-------------------|
|-------------------|-------------------|
|-0-0-0-1-0-----0-1-|-0-0-0-1-0-----0-1-|
|-----------3-3-----|-----------3-3-----|


  E E E S S S S S S   E E E S S S S S S   E E E S S S S S S
|-------------------|-------------------|-------------------|
|-------------------|-------------------|-------------------|
|-------------------|-------------------|-------------------|
|-0-0-0-1-0-----0-1-|-0-0-0-1-0-----0-1-|-0-0-0-1-0-----0-1-|
|-----------3-3-----|-----------3-3-----|-----------3-3-----|


  E E E S S S S S S   E E E S S S S S S   E E E S S S S S S
|-------------------|-------------------|-------------------|
|-------------------|-------------------|-------------------|
|-------------------|-------------------|-------------------|
|-0-0-0-1-0-----0-1-|-0-0-0-1-0-----0-1-|-0-0-0-1-0-----0-1-|
|-----------3-3-----|-----------3-3-----|-----------3-3-----|


    Gtrs I, II
    E E E S S S S S S   E E E S S S S S S
||--------------------|--------------------|
||o-------------------|--------------------|
||--------------------|--------------------|
||o-0-0-0-1-0-----0-1-|-0-0-0-1-0-----0-1--|
||------------3-3-----|-----------3-3------|


  E E E S S S S S S   E E E S S S S S S   E E E S S S S S S
|-------------------|-------------------|-------------------|
|-------------------|-------------------|-------------------|
|-------------------|-------------------|-------------------|
|-0-0-0-1-0-----0-1-|-0-0-0-1-0-----0-1-|-0-0-0-1-0-----0-1-|
|-----------3-3-----|-----------3-3-----|-----------3-3-----|


  E E E S S S S S S   E E E S S S S S S   E E E S S S S S S
|-------------------|-------------------|-------------------|
|-------------------|-------------------|-------------------|
|-------------------|-------------------|-------------------|
|-0-0-0-1-0-----0-1-|-0-0-0-1-0-----0-1-|-0-0-0-1-0-----0-1-|
|-----------3-3-----|-----------3-3-----|-----------3-3-----|


  E E E S S S S S S   E E E S S S S S S   E E E S S S S S S
|-------------------|-------------------|-------------------|
|-------------------|-------------------|-------------------|
|-------------------|-------------------|-------------------|
|-2-2-2-3-2-0-0-2-3-|-2-2-2-3-2-0-0-2-3-|-2-2-2-3-2-0-0-2-3-|
|-------------------|-------------------|-------------------|


  E E E S S S S S S   E E E S S S S S S   E E E S S S S S S
|-------------------|-------------------|-------------------|
|-------------------|-------------------|-------------------|
|-------------------|-------------------|-------------------|
|-2-2-2-3-2-0-0-2-3-|-5-5-5-6-5-3-3-5-6-|-5-5-5-6-5-3-3-5-6-|
|-------------------|-------------------|-------------------|


  E E E S S S S S S   E E E S S S S S S   E E E S S S S S S
|-------------------|-------------------|-------------------|
|-------------------|-------------------|-------------------|
|-------------------|-------------------|-2-2-2-3-2-----2-3-|
|-5-5-5-6-5-3-3-5-6-|-5-5-5-6-5-3-3-5-6-|-----------5-5-----|
|-------------------|-------------------|-------------------|


  E E E S S S S S S   E E E S S S S S S   E E E S S S S S S
|-------------------|-------------------|-------------------|
|-------------------|-------------------|-------------------|
|-2-2-2-3-2-----2-3-|-2-2-2-3-2-----2-3-|-2-2-2-3-2-----2-3-|
|-----------5-5-----|-----------5-5-----|-----------5-5-----|
|-------------------|-------------------|-------------------|


  E E E S S S S S S   E E E S S S S S S   E E E S S S S S S
|-------------------|-------------------|-------------------|
|-------------------|-------------------|-------------------|
|-4-4-4-5-4-2-2-4-5-|-4-4-4-5-4-2-2-4-5-|-4-4-4-5-4-2-2-4-5-|
|-------------------|-------------------|-------------------|
|-------------------|-------------------|-------------------|


  E E E S S S S S S   E E E S S S S S S   E E E S S S S S S
|-------------------|-------------------|-------------------|
|-------------------|-------------------|-------------------|
|-4-4-4-5-4-2-2-4-5-|-5-5-5-6-5-3-3-5-6-|-------6-5-3-3-5-6-|
|-------------------|-------------------|-------------------|
|-------------------|-------------------|-3-3-3-------------|


  E E E S S S S S S   E E E S S S S S S         E E E S S S S S S
|-------------------|--------------------||-||--------------------|
|-------------------|-------------------o||-||o-------3-2-0-0-2-3-|
|-------6-5-3-3-5-6-|-------6-5-3-3-5-6--||-||--------------------|
|-------------------|-------------------o||-||o-0-0-0-------------|
|-3-3-3-------------|-3-3-3--------------||-||--------------------|


  E E E S S S S S S   E E E S S S S S S   E E E S S S S S S
|-------------------|-------------------|-----------------------||
|-------3-2-0-0-2-3-|-------3-2-0-0-2-3-|-------3-2-0-0-2-3----o||
|-------------------|-------------------|-----------------------||
|-0-0-0-------------|-0-0-0-------------|-0-0-0----------------o||
|-------------------|-------------------|-----------------------||


  E E E S S S S S S   E E E S S S S S S   E E E S S S S S S
|-------------------|-------------------|-------------------|
|-------------------|-------------------|-------------------|
|-------------------|-------------------|-------------------|
|-2-2-2-3-2-0-0-2-3-|-2-2-2-3-2-0-0-2-3-|-2-2-2-3-2-0-0-2-3-|
|-------------------|-------------------|-------------------|


  E E E S S S S S S   E E E S S S S S S   E E E S S S S S S
|-------------------|-------------------|-------------------|
|-------------------|-------------------|-------------------|
|-------------------|-------------------|-------------------|
|-2-2-2-3-2-0-0-2-3-|-5-5-5-6-5-3-3-5-6-|-5-5-5-6-5-3-3-5-6-|
|-------------------|-------------------|-------------------|


  E E E S S S S S S   E E E S S S S S S   E E E S S S S S S
|-------------------|-------------------|-------------------|
|-------------------|-------------------|-------------------|
|-------------------|-------------------|-2-2-2-3-2-----2-3-|
|-5-5-5-6-5-3-3-5-6-|-5-5-5-6-5-3-3-5-6-|-----------5-5-----|
|-------------------|-------------------|-------------------|


  E E E S S S S S S   E E E S S S S S S   E E E S S S S S S
|-------------------|-------------------|-------------------|
|-------------------|-------------------|-------------------|
|-2-2-2-3-2-----2-3-|-2-2-2-3-2-----2-3-|-2-2-2-3-2-----2-3-|
|-----------5-5-----|-----------5-5-----|-----------5-5-----|
|-------------------|-------------------|-------------------|


  E E E S S S S S S   E E E S S S S S S   E E E S S S S S S
|-------------------|-------------------|-------------------|
|-------------------|-------------------|-------------------|
|-4-4-4-5-4-2-2-4-5-|-4-4-4-5-4-2-2-4-5-|-4-4-4-5-4-2-2-4-5-|
|-------------------|-------------------|-------------------|
|-------------------|-------------------|-------------------|


  E E E S S S S S S   E E E S S S S S S   E E E S S S S S S
|-------------------|-------------------|-------------------|
|-------------------|-------------------|-------------------|
|-4-4-4-5-4-2-2-4-5-|-5-5-5-6-5-3-3-5-6-|-------6-5-3-3-5-6-|
|-------------------|-------------------|-------------------|
|-------------------|-------------------|-3-3-3-------------|


  E E E S S S S S S   E E E S S S S S S    E E E S S S S S S
|-------------------|-------------------||-------------------|
|-------------------|-------------------||-------3-2-----2-3-|
|-------6-5-3-3-5-6-|-------6-5-3-3-5-6-||-----------5-5-----|
|-------------------|-------------------||-0-0-0-------------|
|-3-3-3-------------|-3-3-3-------------||-------------------|


  E E E S S S S S S   E E E S S S S S S   E E E S S S S S S
|-------------------|-------------------|-------------------|
|-------3-2-----2-3-|-------3-2-----2-3-|-------3-2-----2-3-|
|-----------5-5-----|-----------5-5-----|-----------5-5-----|
|-0-0-0-------------|-0-0-0-------------|-0-0-0-------------|
|-------------------|-------------------|-------------------|


  E E E S S S S S S   E E E S S S S S S   E E E S S S S S S
|-------------------|-------------------|-------------------|
|-------3-2-----2-3-|-------3-2-----2-3-|-------3-2-----2-3-|
|-----------5-5-----|-----------5-5-----|-----------5-5-----|
|-0-0-0-------------|-0-0-0-------------|-0-0-0-------------|
|-------------------|-------------------|-------------------|


  E E E S S S S S S   E E E S S S S S S   E E E S S S S S S
|-------------------|-------------------|-------------------|
|-------3-2-----2-3-|-------------------|-------------------|
|-----------5-5-----|-------------------|-------------------|
|-0-0-0-------------|-2-2-2-3-2-0-0-2-3-|-2-2-2-3-2-0-0-2-3-|
|-------------------|-------------------|-------------------|


  E E E S S S S S S   E E E S S S S S S   E E E S S S S S S
|-------------------|-------------------|-------------------|
|-------------------|-------------------|-------------------|
|-------------------|-------------------|-------------------|
|-2-2-2-3-2-0-0-2-3-|-2-2-2-3-2-0-0-2-3-|-5-5-5-6-5-3-3-5-6-|
|-------------------|-------------------|-------------------|


  E E E S S S S S S   E E E S S S S S S   E E E S S S S S S
|-------------------|-------------------|-------------------|
|-------------------|-------------------|-------------------|
|-------------------|-------------------|-------------------|
|-5-5-5-6-5-3-3-5-6-|-5-5-5-6-5-3-3-5-6-|-5-5-5-6-5-3-3-5-6-|
|-------------------|-------------------|-------------------|


  E E E S S S S S S   E E E S S S S S S   E E E S S S S S S
|-------------------|-------------------|-------------------|
|-------------------|-------------------|-------------------|
|-2-2-2-3-2-----2-3-|-2-2-2-3-2-----2-3-|-2-2-2-3-2-----2-3-|
|-----------5-5-----|-----------5-5-----|-----------5-5-----|
|-------------------|-------------------|-------------------|


  E E E S S S S S S   E E E S S S S S S   E E E S S S S S S
|-------------------|-------------------|-------------------|
|-------------------|-------------------|-------------------|
|-2-2-2-3-2-----2-3-|-4-4-4-5-4-2-2-4-5-|-4-4-4-5-4-2-2-4-5-|
|-----------5-5-----|-------------------|-------------------|
|-------------------|-------------------|-------------------|


  E E E S S S S S S   E E E S S S S S S   E E E S S S S S S
|-------------------|-------------------|-------------------|
|-------------------|-------------------|-------------------|
|-4-4-4-5-4-2-2-4-5-|-4-4-4-5-4-2-2-4-5-|-------6-5-3-3-5-6-|
|-------------------|-------------------|-------------------|
|-------------------|-------------------|-3-3-3-------------|


  E E E S S S S S S   E E E S S S S S S   E E E S S S S S S
|-------------------|-------------------|-------------------|
|-------------------|-------------------|-------------------|
|-------6-5-3-3-5-6-|-------6-5-3-3-5-6-|-------6-5-3-3-5-6-|
|-------------------|-------------------|-------------------|
|-3-3-3-------------|-3-3-3-------------|-3-3-3-------------|


  E E E S S S S S S   E E E S S S S S S
|-------------------|-------------------|
|-------3-2-----2-3-|-------3-2-----2-3-|
|-----------5-5-----|-----------5-5-----|
|-0-0-0-------------|-0-0-0-------------|
|-------------------|-------------------|


  E E E S S S S S S   E E E S S S S S S
|-------------------|-------------------*|
|-------3-2-----2-3-|-------3-2-----2-3-*|
|-----------5-5-----|-----------5-5-----*|
|-0-0-0-------------|-0-0-0-------------*|
|-------------------|-------------------*|



Duration Legend
---------------
W - whole; H - half; Q - quarter; E - 8th; S - 16th; T - 32nd; X - 64th; a - acciaccatura
+ - note tied to previous; . - note dotted; .. - note double dotted
Uncapitalized letters represent notes that are staccato (1/2 duration)
Irregular groupings are notated above the duration line
Duration letters will always appear directly above the note/fret number it represents the
duration for.  Duration letters with no fret number below them represent rests.  Multi-
bar rests are notated in the form Wxn, where n is the number of bars to rest for.  Low
melody durations appear below the staff

Tablature Legend
----------------
 h   - hammer-on
 p   - pull-off
 b   - bend
 pb  - pre-bend
 r   - bend release (if no number after the r, then release immediately)
 /\  - slide into or out of (from/to "nowhere")
 s   - legato slide
 S   - shift slide
 - natural harmonic
[n]  - artificial harmonic
n(n) - tapped harmonic
 ~   - vibrato
 tr  - trill
 T   - tap
 TP  - trem. picking
 PM  - palm muting
\n/  - tremolo bar dip; n = amount to dip
 \n  - tremolo bar down
 n/  - tremolo bar up
/n\  - tremolo bar inverted dip
 =   - hold bend; also acts as connecting device for hammers/pulls
 <> - volume swell (louder/softer)
 x   - on rhythm slash represents muted slash
 o   - on rhythm slash represents single note slash

Misc Legend
-----------
 |  - bar
||  - double bar
||o - repeat start
o|| - repeat end
*|  - double bar (ending)
 :  - bar (freetime)
 $  - Segno
 &  - Coda
Tempo markers -  = BPM(8/16=s8/s16), where s8 = swing 8ths, s16 = swing 16ths
"            

comments powered by Disqus
↑ Back to top | Yngwie Malmsteen Bass for Asylum. Lyrics for acoustic guitar and electric guitar. Tablatures and chords are parodies/interpretations of the original songs. You may use it for private study, scholarship, research or language learning purposes only