» » »

Yngwie Malmsteen, Amberdawn Tabs (ver.1)

Artists:  A B C D E F G H I J K L M N O P Q R S T U V W X Y Z # 

Amberdawn Tabs (ver.1)

Yngwie Malmsteen Tabs
 Rating:
4.4/5 (7 votes)
Amberdawn lessons Tabs too difficult? Try these video lessons and learn fast
                Legend
------

 h  = hammer-on
 p  = pull-off
 b  = bend
 r  = bend release
 /  = slide up/down
<5> = natural harmonic
[5] = artifical harmonic
 ~  = vibrato
 tr = trill


           Am             Fadd9                                 Am      E
      Cd time 00:00:00

Eb|-----------------------------0-----------------------------------5-8-7-------|
Bb|------------1---0--------------1-3~-1h3p1p0-3/6-5trh6-3h--5----5-------9-----|
Gb|--------------------2------2---------------------------------5-----------9---|
Db|----------2---2---2---2--3-------------------------------------------------9-|
Ab|--------0--------------------------------------------------------------------|
Eb|-5/14\x----------------------------------------------------------------------|

  I didn't include all the palm mutes as it will take me years to tab it nicely!

Eb-|--------------------------------0-----------------------------------5-7h8p7p-|
Bb-|---------------1---0--------------1-3~-1h3p1p0-3/6-5trh6-3h--5----5----------|
Gb-|-----------------------2------2---------------------------------5------------|
Db-|-------------2---2---2---2--3------------------------------------------------|
Ab-|-----------0-----------------------------------------------------------------|
Eb-|-----------------------------------------------------------------------------|

Eb|-5---------4-7~|------------------------------0------------------------------|
Bb|---5-----5-----|-------------1---0--------------1-3~-1h3p1p0-3/6-5trh6-3h--5-|
Gb|-----5-4-------|---------------------2------2--------------------------------|
Db|---------------|-----------2---2---2---2--3----------------------------------|
Ab|---------------|---------0---------------------------------------------------|
Eb|---------------|-------------------------------------------------------------|

Eb------5-7-7-5-5-4-5-----------------------------------0-----------------------|
Bb----5--------------------------------1---0--------------1-3~-1h3p1p0-3/6-5----|trh
Gb--5------------------------------------------2------2-------------------------|
Db-----------------------------------2---2---2---2--3---------------------------|
Ab---------------------------------0--------------------------------------------|
Eb------------------------------------------------------------------------------|


                                           D                          Dm


Eb|--------------5---4-----|---------------------------10-12-12/14-------------|
Bb|-6-3h--5----5---5---5---|------------------------10-------------------------|
Gb|----------5-----------4~|---------------------11-------------------------10-|
Db|------------------------|------------------12-------------------------12----|
Ab|------------------------|---------------12-------------------------12-------|
Eb|------------------------|---------------------------------------------------|


                                   A


Eb|----10-12-12b14--12b14-(13)r12----------------------------------------------------|
Bb|-10----------------------------------------10---<(22)>----------------------------|
Gb|-----------------------------------------9--------------18-19-18------------------|
Db|--------------------------------------12-------------------------19---------------|
Ab|-----------------------------------12-------------------------------19-17-{16}b17-|
Eb|--------------------------------12------------------------------------------------|


Eb-|-----------------------10-12-(12)b14-(14)--12b14-(14)r(12)--------------12b14-|
Bb-|--------------------10-----------------------------------------------10-------|
Gb-|-----------------11-----------------------------------------------10----------|
Db-|--------------12-----------------------------------------------12-------------|
Ab-|-----------12-----------------------------------------------12----------------|
Eb-|------------------------------------------------------------------------------|


                                                                CD time : 00:55:68

Eb|--r-10-12-13-12-13/17p13-------------------------------------------------------|
Bb|-------------------------------------10~<(22)>--14-----------------------------|
Gb|-----------------------------------9---------------15-14h15p14----------14-15--|
Db|--------------------------------12-----------------------------14----14--------|
Ab|-----------------------------12-----------------------------------14-----------|
Eb|--------------------------12---------------------------------------------------|

Eb|----
Bb|----
Gb|-22~
Db|----
Ab|----
Eb|----
            
Submit corrections

comments powered by Disqus
↑ Back to top | Yngwie Malmsteen Tabs for Amberdawn. Lyrics for acoustic guitar and electric guitar. Tablatures and chords are parodies/interpretations of the original songs. You may use it for private study, scholarship, research or language learning purposes only