» » »

Yngwie Malmsteen, Air On A Tabs (ver.1)

Artists:  A B C D E F G H I J K L M N O P Q R S T U V W X Y Z # 

Air On A Tabs (ver.1)

Yngwie Malmsteen Tabs
 Rating:
4/5 (4 votes)
Air On A lessons Tabs too difficult? Try these video lessons and learn fast
                (Theme)

Air on a Theme
Yngwie J malmsteen
Facing The Animal


-------12-------12---------------------10-12-13-13--12-12--13p12p10-------------|
----13-------13---------13-12-10-12-13------------------------------13p12p10----|
-14-------14--------14-------------------------------------------------------13-|
--------------------------------------------------------------------------------|
--------------------------------------------------------------------------------|
--------------------------------------------------------------------------------|


-------------12----------------12---12-----------------------------------12-17--|
----12h13h15----------12h13h15---13----13p12h13p12---------------------13-------|
-13-------------13-13------------------------------14p13-14----------14---------|
---------------------------------------------------------------10h14------------|
------------------------------------------------------------12------------------|
--------------------------------------------------------------------------------|


-12-----------------------------------------------------------14-15-17--------|
-----13p12----16-12-----13p12---16-12-----13p12-12---14-15-17-----------------|
----------14-------14-16-------------14-16------------------------------------|
------------------------------------------------------------------------------|
------------------------------------------------------------------------------|
------------------------------------------------------------------------------|

					  (trill)
-15-14--15-14h15p14-12-14-12h14p12-11-11--12p11---11-12-----------------------|
------------------------------------------------14----------------------------|
------------------------------------------------------------------------------|
------------------------------------------------------------------------------|
------------------------------------------------------------------------------|
------------------------------------------------------------------------------|


-12p9--------------9-10--12p9--------------9-12b13-12h13-10h12p9h10--10p7-------------|
-----10-10-9-10-12-----------10-10-9-10-12--------------------------------8-8-7-8-10--|
--------------------------------------------------------------------------------------|
--------------------------------------------------------------------------------------|
--------------------------------------------------------------------------------------|
--------------------------------------------------------------------------------------|


-7-8-10p7------------7-8-10b12--10h12-8h10p7-8-|---------------12/17-20~--17--12--|
----------8-8-7-8-10---------------------------|-------------13-------------------|
-----------------------------------------------|-----------14---------------------|
-----------------------------------------------|------10-14-----------------------|
-----------------------------------------------|---12-----------------------------|
-----------------------------------------------|----------------------------------|


----------------------------------------------------------------|
---15p13p12------16p12----12---13\12--16p12-----12-13\12-12~----|
------------14---------14--------------------14-----------------|
----------------------------------------------------------------|
----------------------------------------------------------------|
----------------------------------------------------------------|

							      (trill)
----------14-15-17---15-14--15-14h15p14\12--14-12h14p12\11-11--12p11----11-12-|
-14-15-17------------------------------------------------------------14-------|
------------------------------------------------------------------------------|
------------------------------------------------------------------------------|
------------------------------------------------------------------------------|
------------------------------------------------------------------------------|

Then Repeat Twice.

--14-15-17p15p14--15p14/12--15p14p12--14p12p11h12-12---12h14h15/20-20--19----21~-|
--------------------------------------------------------------------------17-----|
---------------------------------------------------------------------------------|
---------------------------------------------------------------------------------|
---------------------------------------------------------------------------------|
---------------------------------------------------------------------------------|
            
Submit corrections

comments powered by Disqus
↑ Back to top | Yngwie Malmsteen Tabs for Air On A. Lyrics for acoustic guitar and electric guitar. Tablatures and chords are parodies/interpretations of the original songs. You may use it for private study, scholarship, research or language learning purposes only