» » »

Adagio Tabs (ver.3)

Artists:  A B C D E F G H I J K L M N O P Q R S T U V W X Y Z # 

Adagio Tabs (ver.3)

Yngwie Malmsteen
Rating:
0/5 (0 votes)

Hard to play? Try these video lessons and learn fast.
                            

              Adagio b flat minor variation - Yngwie MAlmsteen


Tuning: Standart


E|-----/18~---------------------|-----------------------------------------------------9/18~-|
B|-11~-----11-12-14~--11-13tr11-|-13-14-16~--14p13h14-13p11h13-13-11-10-----------11--------|
G|------------------------------|----------------------------------------------10-----------|
D|------------------------------|-------------------------------------------11--------------|
A|------------------------------|---------------------------------------13------------------|
E|------------------------------|-----------------------------------------------------------|


  00:14
E|-13-13tr14----------------(14)-14-13-11-----------------------11h13h14~-|
B|-----------16-14/13-11-11~--------------14-13-11-10~-11h13h14-----------|
G|------------------------------------------------------------------------|
D|------------------------------------------------------------------------|
A|------------------------------------------------------------------------|
E|------------------------------------------------------------------------|

  00:22
E|-14~-------------------16p14p13----------------------------10/18~---|
B|-----16-14-14p13h14-15*--------16p14p13---------11~------11---------|
G|----------------------------------------15h14h12-------10-----------|
D|-----------------------------------------------------12-------------|
A|---------------------------------------------------13---------------|
E|--------------------------------------------------------------------|

  00:29 
E|-16-18--14-(14)-16--13-13-14-16p13-14~------------------11-12-14--16-16~---|
B|---------------------------------------9-11-12--11-12-14-------------------|
G|---------------------------------------------------------------------------|
D|---------------------------------------------------------------------------|
A|---------------------------------------------------------------------------|
E|---------------------------------------------------------------------------|


E|-14-16--13-14-11-13-14tr13---|----------------------------10h11h13-14~--|
B|-----------------------------|-------------------10h11h13---------------|
G|-----------------------------|--------------10h11-----------------------|
D|-----------------------------|------10h11h13----------------------------|
A|-----------------------------|-11h13------------------------------------|
E|-----------------------------|------------------------------------------|

E|-13-14--11-13--9-11--9h11~--9/13~--11-9-8---------------------------------11h14p11-----|
B|-----------------------------------------11-11~-------------11h12h14--------------13---|
G|----------------------------------------------------11h12h14------------------------14-|
D|-----------------------------------------------11h12-----------------------------------|
A|---------------------------------------------------------------------------------------|
E|---------------------------------------------------------------------------------------|

E|--20-14-17-18-17-14--20-14-17-18-17-14--20-14-17-18-17-14--20-14-17--------20/21b-|
B|----------------------------------------------------------------------------------|
G|----------------------------------------------------------------------------------|
D|----------------------------------------------------------------------------------|
A|----------------------------------------------------------------------------------|
E|----------------------------------------------------------------------------------|

E|-20-19-17s16------------------------------------------|
B|-------------18-17-15---------------------------------|
G|---------------------17-16-14s12----------------------|
D|--------------------------------15-14-12--------------|
A|----------------------------------------15-14-12s11~--|
E|------------------------------------------------------|

E|--20p17-20p17--17--17p14-17p14--14-14p11-----|
B|-------------19---------------16--------13---|
G|---------------------------------------------|
D|---------------------------------------------|
A|---------------------------------------------|
E|---------------------------------------------|

                                                
E|--14-14-14-13-11--11-14-14-14-13-11---|-----------------------------|--------------|
B|----------------13-----------------13-|-141618-191816-191816-181614-|--------------|
G|--------------------------------------|-----------------------------|--------------|
D|--------------------------------------|-----------------------------|-11-10-8--7~--|
A|--------------------------------------|-----------------------------|--------------|
E|--------------------------------------|-----------------------------|--------------|


E|----------------------------------------------------6-----------------|
B|-11-13-14-13-11--11---11-12--11-9--------9-11------7-----4-6-7-6-4----|
G|---------------14--13~------------11~--8-----11~--6---8~-----------6~-|
D|----------------------------------------------------------------------|
A|----------------------------------------------------------------------|
E|----------------------------------------------------------------------|

E|--------------/14p13p11---------------------------------|
B|--2-4-6-4-2------------14p13p11-7p6p4-------------------|
G|-----------5~-------------------------6p5p3-2~-5-6-8-6--|
D|--------------------------------------------------------|
A|--------------------------------------------------------|
E|--------------------------------------------------------|

f**king fast bit!
E|---------------------------------------------------------111314------1314161413-14-18-19p18-21|
B|------------------------------101113-111314-131416-141618-------------------------------------|
G|5р6р8-6р8р10-8р10р11-10р11р13-----------------------------------------------------------------|
D|----------------------------------------------------------------------------------------------|
A|----------------------------------------------------------------------------------------------|
E|----------------------------------------------------------------------------------------------|

E|-14h17/20p17--17-17p14--14-14p11--11-14p11--11--11p8--11--9p6/18----|
B|------------19--------16--------13--------13--------10--------------|
G|--------------------------------------------------------------------|
D|--------------------------------------------------------------------|
A|----------------------------------------------------------------/13-|
E|--------------------------------------------------------------------|


E|--11-13-14-11-13-9-11p8-9p6--6-8-9--8-9-11--13~---|
B|--------------------------------------------------|
G|--------------------------------------------------|
D|--------------------------------------------------|
A|--------------------------------------------------|
E|--------------------------------------------------|


E|-141311-161413-191816-161413-11108-865-----------|
B|--------------------------------------865-865-3~-|
G|-------------------------------------------------|
D|-------------------------------------------------|
A|-------------------------------------------------|
E|-------------------------------------------------|


E|----6-9-6-8-6-11-6-9-6--6-9-141311-976-11108-865-6--6-6-10-18~--|
B|---6-6----------------------------------------------------------|
G|--6-------------------------------------------------------------|
D|----------------------------------------------------------------|
A|----------------------------------------------------------------|
E|----------------------------------------------------------------|

************************************

| /   slide up
| \   slide down
| h   hammer-on
| p   pull-off
| ~   vibrato
| *   harmonic
| x   Mute note
| b   Bend
| pb  Pre-bend
| r   Bend release
| pbr Pre-bend release
| brb Bend release bend

************************************
            
Hard to play? Try these video lessons and learn fast. | Correct




comments powered by Disqus
↑ Back to top | Tablatures and chords are parodies/interpretations of the original songs. You may use it for private study, scholarship, research or language learning purposes only