» » »

Yiruma, River Flows In You Tabs (ver.4)

Artists:  A B C D E F G H I J K L M N O P Q R S T U V W X Y Z # 

River Flows In You Tabs (ver.4)

Yiruma Tabs
 Rating:
4/5 (9 votes)
River Flows In You lessons Tabs too difficult? Try these video lessons and learn fast
1
                River Flows In You
Yurima
This would be the lead for the song.. there is also a rythm guitar... but havent 

GUITAR 1 (LEAD)


                                  
     E                                                  E  E  E  E  E  E  E     
E||--5--------------------------------------------------4--5--4--5--0--5--------|
B||-----------------------------------------------------------------------3-----|
G||-----------------------------------------------------------------------------|
D||-----------------------------------------------------------------------------|
A||-----------------------------------------------------------------------------|
E||-----------------------------------------------------------------------------|


  H        E  S S    E  E  E  E  E  E  E  E     H        E  S S  
------------------|--5--4--5--4--5--0--5-----|------------------|
--L--------L----2-|-----------------------3--|--L--------L----2-|
--------------2---|--------------------------|--------------2---|
------------------|--------------------------|------------------|
------------------|--------------------------|------------------|
------------------|--------------------------|------------------|


  E  S S S S S S S S S S S S S S      E  E  E  E  Q.     S S  
--5--4-5-L---4-5-L---0-5-L-------|----------0----------------|
-----------------------------3---|--0g2--3-----2--0----------|
-----------2-------2-------2---2-|----------2-----1------2-1-|
---------------------------------|---------------------------|
---------------------------------|---------------------------|
---------------------------------|---------------------------|


  Q    S S S S Q.     S S    Q.     S S H         
--------------------------|--0-------------------|
-------------0-2------2-3-|---------3-2-0--------|
--2----L---2--------------|----------------------|
---------2----------------|----------------------|
--------------------------|----------------------|
--------------------------|----------------------|


  T    S.S S S S S S S S S S S S S S      E  E  E  E  E  E  T   S.S S  
---------4-5-L---4-5-L---0-5-L-------|----------0--9--7--0--7-9g7-5-4-|
---------------------------------3---|--0g2--3------------------------|
--2-6g14-------2-------2-------2---2-|--------------------------------|
-------------------------------------|--------------------------------|
-------------------------------------|--------------------------------|
-------------------------------------|--------------------------------|


   Q.     S S E  E  E  S S    E  E  E  S S Q    S S S S  
---0-----------------------|--0-----------------5-7-5-4-|
--10--------0-2--------2-3-|--------2--3-2-0------------|
----------2---------2------|----------------------------|
-----------------2---------|-----2----------------------|
---------------------------|----------------------------|
---------------------------|----------------------------|


  S S S S S S S S S S S S S S S S    S S S  S  S S S S E  E  S S S S  
--5---0---5-7-5-4-5---0---5-7-5-4-|--5-7-9-10-12-9-7-5-4-----5-7-5-4-|
----------------------------------|-----------------------0----------|
----2---2-----------2---2---------|----------------------------------|
----------------------------------|----------------------------------|
----------------------------------|----------------------------------|
----------------------------------|----------------------------------|


  S S S S S S S S S S S S S S S S    S S S  S  S S S S E  E  S T T S S  
--5---0---5-7-5-4-5---0---5-7-5-4-|--5-7-9-10-12-9-7-5-4-----5-5-7-5-4-|
----------------------------------|-----------------------0------------|
----2---2-----------2---2---------|------------------------------------|
----------------------------------|------------------------------------|
----------------------------------|------------------------------------|
----------------------------------|------------------------------------|


  S S S S S. T S S S S S S S. T S S    S S S  S  S S S S E  E  S. T S S  
--5---0---5--7-5-4-5---0---5--7-5-4-|--5-7-9-10-12-9-7-5-4-----5--7-5-4-|
------------------------------------|-----------------------0-----------|
----2---2------------2---2----------|-----------------------------------|
------------------------------------|-----------------------------------|
------------------------------------|-----------------------------------|
------------------------------------|-----------------------------------|


  S S S S S. T S S S S S S S S S S    S S S  S  S S S S E  E  E  Q    S S  
--5---0---5--7-5-4-5---0---5-7-5-4-|--5-7-9-10-12-9-7-5-4-----------------|
-----------------------------------|-----------------------0------------2-|
----2---2------------2---2---------|--------------------------1-------2---|
-----------------------------------|-----------------------------2--------|
-----------------------------------|--------------------------------------|
-----------------------------------|--------------------------------------|


  E  S S S S S S S S S S S S S S      E  E  E  E  Q.     S S  
--5--4-5-L---4-5-L---0-5-L-------|----------0----------------|
-----------------------------3---|--0g2--3-----2--0----------|
-----------2-------2-------2---2-|----------2-----1------2-1-|
---------------------------------|---------------------------|
---------------------------------|---------------------------|
---------------------------------|---------------------------|


  Q    S S S S S S S S S S S S    S S S S S S S S S S S S E  E   
-------------------------------|--0-------0---------------------|
-------------0-2-----0-2---2-3-|------2-3-----3-2-0---3-2-0-----|
--2----L---2-------2-----------|-----------------------------1--|
--2----L-2-------2-------2-----|----2-------2-------2-----------|
-------------------------------|--------------------------------|
-------------------------------|--------------------------------|


     E  S S S S S S S S S S S S S S      E  E  E  E  E  E  T   S.S S  
--------4-5-L---4-5-L---0-5-L-------|----------0--9--7--0--7-9g7-5-4-|
--2g10--------------------------3---|--0g2--3------------------------|
--------------2-------2-------2---2-|--------------------------------|
------------------------------------|--------------------------------|
------------------------------------|--------------------------------|
------------------------------------|--------------------------------|


   Q.     S S S S S S S S S S    S S S S S S S S S S S S S S S S  
---0--------------------------|--0-------0---------------5-7-5-4-|
--10--------0-2-----0-2---2-3-|------2-3-----3-2-0-----0---------|
----------2-------2-----------|----------------------1-----------|
----------------2-------2-----|----2-------2-------2-------------|
------------------------------|----------------------------------|
------------------------------|----------------------------------|


    S S S S S T T S S S S S S S T T S S  
--4g5---0---5-5-7-5-4-5---0---5-5-7-5-4-|
----------------------------------------|
------2---2-------------2---2-----------|
----------------------------------------|
----------------------------------------|
----------------------------------------|


  S S S  S  S S X   T.S S S S S S T T S S  
--5-7-9-10-12-9-7-9g7-5-4---0---5-5-7-5-4-|
--------------------------0---0-----------|
------------------------------------------|
------------------------------------------|
------------------------------------------|
------------------------------------------|


    S S S S S T T S S S S S S S T T S S  
--4g5---0---5-5-7-5-4-5---0---5-5-7-5-4-|
----------------------------------------|
------2---2-------------2---2-----------|
----------------------------------------|
----------------------------------------|
----------------------------------------|


  S S S  S  S S X   T.S S S S S S T T S S    S S S S S S S S S S S S S T T S S  
--5-7-9-10-12-9-7-9g7-5-4---0---5-5-7-5-4-|--5---0---5-7-5-4-5---0---5-5-7-5-4-|
--------------------------0---0-----------|------------------------------------|
------------------------------------------|----2---2-----------2---2-----------|
------------------------------------------|------------------------------------|
------------------------------------------|------------------------------------|
------------------------------------------|------------------------------------|


  S S S  S  S S S S E  E  S T  T S S    S S S S S T T S S S S S S S T T S S  
--5-7-9-10-12-9-7-5-4-----5-5----5-4-|--5---0---5-5-7-5-4-5---0---5-5-7-5-4-|
-----------------------0------12-----|--------------------------------------|
-------------------------------------|----2---2-------------2---2-----------|
-------------------------------------|--------------------------------------|
-------------------------------------|--------------------------------------|
-------------------------------------|--------------------------------------|


  S S S  S  S S S S E  E  E  E     T    S.E  E  E  E  E  E  E   
--5-7-9-10-12-9-7-5-4-----------|---------4--5--4--5--0--5-----|
-----------------------0--------|------------------2--------3--|
--------------------------1-----|--2-6g14----------------------|
-----------------------------2--|------------------------------|
--------------------------------|------------------------------|
--------------------------------|------------------------------|


                            ^                         
  E  E  E  E  Q    E  E     Q    E  S S E  E  E  S S  
--------0----------------|---------------------------|
--2--3-----2--0----------|------------0-2--------2-3-|
-------------------2--1--|--2-------2---------2------|
-------------------------|--2----2---------2---------|
-------------------------|--4------------------------|
-------------------------|---------------------------|


                                         ^            
  E  E  E  S S Q.     S S    E  E  E  E  E  E  E  E   
--0-----------------------|--5--4--5--4--5--0--5-----|
--------2--3-2-0--------2-|--------------5--------3--|
----------------------2---|--------------6-----------|
-----2--------------------|--------------------------|
--------------------------|--------------------------|
--------------------------|--------------------------|


    E  E  E  E  Q.     S S    Q.     S S E  E  E  S S  
----------0--9--7----------|--------------------------|
--0g2--3--------5----------|-----------0-2--------2-3-|
-----------------------2-1-|--2------2---------2------|
---------------------------|--2-------------2---------|
---------------------------|--------------------------|
---------------------------|--------------------------|


  E  E  E  S S Q    Q       E  E  E  E  H          
--0----------------------|-----------------------||
-----------3-2-0---------|-----------------------||
--------2----------------|--2-----------2--------||
-----2--------------2----|-----------4-----------||
-------------------------|-----0--4--------------||
-------------------------|-----------------------||




Duration Legend
---------------
W - whole
H - half
Q - quarter
E - 8th
S - 16th
T - 32nd
X - 64th
. - note dotted
|-n-|  - n-tuplets


Tablature Legend
----------------
L - tied note
x - dead note
g - grace note
(n) - ghost note
> - accentuded note
NH - natural harmonic
AH - artificial harmonic
TH - tapped harmonic
SH - semi harmonic
PH - pitch harmonic
h - hammer on
p - pull off
b - bend
br - bendRelease
pb - preBend
pbr - preBendRelease
brb - bendReleaseBend
\n/ - tremolo bar dip
\n - tremolo bar dive
-/n - tremolo bar Release up
/n\ - tremolo bar inverted dip
/n - tremolo bar return
-\n - tremolo bar Release down
S - shift slide
s - legato slide
/ -  slide into from below or out of upwards
\ -  slide into from above or out of downwards
~ - vibrato
W - wide vibrato
tr - trill
TP - tremolo picking
T - tapping
S - slap
P - pop
< - fade in
^ - brush up
v - brush down
            
Submit corrections

comments powered by Disqus
↑ Back to top | Yiruma Tabs for River Flows In You. Lyrics for acoustic guitar and electric guitar. 1 Tablatures and chords are parodies/interpretations of the original songs. You may use it for private study, scholarship, research or language learning purposes only